Guitaretab - guitar tabs
Song name
# A B C D E F G H I J K L M N O P Q R S T U V W X Y Z

Pax 217 - Sandbox Praise tab

Pax217
Sanbox Praise
Tabbed By RocknSk8a
HardRockr@hotmail.com

The song starts with:
|-----p.m.--------------------------------------------|
e-----------------------------------------------------|
b-----------------------------------------------------|
g------6-6--7-7---------------------------------------|
d-2-2--6-6--7-7--7-5----------------------------------|
a-2-2--4-4--5-5--7-5----------------------------------|
e-0-0------------5-3----------------------------------|(repeat as needed*)
Then it does that intro without a palm mute...
[ Tab from: http://www.guitaretab.com/p/pax-217/42682.html ]
Then throughout the verses it turns into this:
 |-----------Slight P.M.------------------------------|
e---4-4-4-4-4-4-4-4--7-7-7-7-7-7-7-7------------------|
b---5-5-5-5-5-5-5-5--9-9-9-9-9-9-9-9------------------|
g---4-4-4-4-4-4-4-4--9-9-9-9-9-9-9-9------------------|
d-----------------------------------------------------|
a-----------------------------------------------------|
e-----------------------------------------------------|

Then after verse:
e-------------|
b-------------|
g--9-9-9-9-9--|
d--9-9-9-9-9--|
a--7-7-7-7-7--|Keep going variously throughout the song
e-------------|
   ^UP STROKE ALL OF THESE

Then go back to top but with no p.m.


It's a great song on the guitar!! Have Fun!
Related for Sandbox Praise tab