Guitaretab - guitar tabs
Song name
# A B C D E F G H I J K L M N O P Q R S T U V W X Y Z
Home / P / Pax 217 / Am tab

Pax 217 - Am tab

Pax 217
AM
tabbed by RocknSk8a
HardRockr@hotmail.com

hey I edited some else's version to make this...

Intro - P.M.
e|-------------------------------------------------------------------------|
B|-------------------------------------------------------------------------|
G|------------------------------6-4----------------------------------------|
D|-2-2-2--2-2-2--2-2-2--2-2-2--6-4--2-2-2--2-2-2--2-2-2-------------2-2-2--|
A|-2-2-2--2-2-2--2-2-2--2-2-2--4-2--2-2-2--2-2-2--2-2-2--5-4-0-2-0--2-2-2--|
E|-0-0-0--0-0-0--0-0-0--0-0-0-------0-0-0--0-0-0--0-0-0-------------0-0-0--|

  Not P.M.
e|--------------------------------------------------------------------------|
B|--------------------------------------------------------------------------|
G|-14-14-14-13-13-13-18-18-18-16-16-16--------------------------------------|
D|--x--x--x--x--x--x--x--x--x--x--x-x--------------------------------------|
A|-12-12-12-11-11-11-16-16-16-14-14-14--------------------------------------|
E|--------------------------------------------------------------------------|
[ Tab from: http://www.guitaretab.com/p/pax-217/48101.html ]
Verse P.M.                  Pre-Chorus 0:41
e|------------------|-------------------------------------------------------|
B|------------------|-------------------------------------------------------|
G|------------------|-----------------4-p-(2)-------------------------------|
D|-2-2-2------------|-----------------4-p-(2)-2-----------------------------|
A|-2-2-2--5-4-0-2-0-|-2-2-2-x-x-2-2-2-2---(2)-2-----------------------------|
E|-0-0-0------------|-0-0-0-x-x-0-0-0---------0-----------------------------|

Chorus
e|---------------------------------------------------------0---------0-0-0-0-|
B|---------------------------------------------------------x---------x-5-3-0-|
G|----4/6-----4/6---------4/6----------4/6-----4/6---------4---------6-6-4-2-|
D|----4/6-----4/6---------4/6----------4/6-----4/6---------4---------6-6-4-2-|
A|2-2-----2-2-----2-2-2-2-----2-2--2-2-----2-2-----2-2-2-2-2-2-2-2-2-4-4-2---|
E|0-0-----0-0-----0-0-0-0-----0-0--0-0-----0-0-----0-0-0-0---0-0-0-0---------|

Bridge - Clean  ( ) = pick cord randomly                   Distortion
e|-0-0---0-0-------------0--0--(0)--0--0---(0)-|----------------------------|
B|-5-3---5-3----------0--5--3--(0)--5--3---(0)-|----------------------------|
G|-6-4---6-4--------2----6--4--(2)--6--4---(2)-|----------------------------|
D|-6-4---6-4------2------6--4--(2)--6--4---(2)-|-2-2-2-2---2/-6-6-6-4-4-4-4-|
A|-4-2---4-2--2-2--------4--2--(2)--4--2---(2)-|-2-2-2-2-x-2/-6-6-6-4-4-4-4-|
E|---------------------------------------------|-0-0-0-0-x-0/-4-4-4-2-2-2-2-|


This one is also FUN!! this is a great song!
Related for Am tab