Song name
# A B C D E F G H I J K L M N O P Q R S T U V W X Y Z

Payola - Where Is This Love tab

This is my first tab (that's why it sucks), and I made it because I suppose that there are others
out there who have looked for the tab/chords to this song and not found them.
I am here to change that, even though this may not exactly be right... I did it by ear.

The verses go like this:

He could run like a tiger, when he felt like everything was

E|--x-xx-x--xx-xx--x-xx-x--xx-xx-|
A|--0-00-0--00-00--0-00-0--00-00-|
D|--4-44-2--22-22--4-44-2--22-22-|
G|--4-44-2--22-22--4-44-2--22-22-|
B|--3-33-2--22-22--3-33-2--22-22-|
e|--0-00-0--00-00--0-00-0--00-00-|

all-   right

E|--2-22-0--00-00--2-22-0--00-00-|
A|--2-22-2--22-22--2-22-2--22-22-|
D|--2-22-2--22-22--2-22-2--22-22-|
G|--1-11-1--11-11--1-11-1--11-11-|
B|--0-00-0--00-00--0-00-0--00-00-|
e|--2-22-0--00-00--2-22-0--00-00-|


-and then the chorus goes like this:

D
Where is this love
          A        G
That will open the doors
D
Where is this love
              A           G
That makes me cry out for more
D
Where is this love
     A           G
That comes from above
D                D(mute after love)
Where is this love


-going into the bridge, the chorus ends off a little different:

D
Where is this love
     A           G
That comes from above
D                   A             D   C
Where is this love, where is this love


-and then the bridge goes some thing like this:

Chords
C D G A# A C D G A# A C D G A# A C D G

Riff
E|------------------------------------------------------------------------|
A|------------------------------------------------------------------------|
D|------------------------------------------------------------------------|
G|--5--7---0---15-15-15--14-14-14--3-3-5--7---0---15-15-15--14-14-14--3-3-|
B|------------------------------------------------------------------------|
e|------------------------------------------------------------------------|

E|-------------------------------------------------|
A|-------------------------------------------------|
D|-------------------------------------------------|
G|--5--7---0---15-15-15--14-14-14--3-3-5--7---0----|
B|-------------------------------------------------|
e|-------------------------------------------------|

-at the end of the bridge there is some sort of slide that I can't figure out right now


This band doesn't have a website that I can find, but here are websites that will tell 
about the Vancouver-based Canadian band. There is also video evidence.

http://en.wikipedia.org/wiki/Payolas

http://www.canadianbands.com/Payolas.html

http://www.thecanadianencyclopedia.com/index.cfm?PgNm=TCE&Params=U1ARTU0002745

http://www.discogs.com/artist/Payola$

http://jam.canoe.ca/Music/Pop_Encyclopedia/P/Payolas.html

http://www.youtube.com/watch?v=jWYDVxIgA0M

http://www.youtube.com/watch?v=1C_fVnE3xHY&feature=related
Tap to rate this tab
# A B C D E F G H I J K L M N O P Q R S T U V W X Y Z