Song name
# A B C D E F G H I J K L M N O P Q R S T U V W X Y Z

Paz Lenchantin - Kentucky Hymn tab

Song: Kentucky Hymn
Artist: Paz Lenchantin
Album: Songs for Luci
Tabbed by: Rory Lidstone
Paz Lenchantin Official Website: www.pazweb.net

Honestly, this song is pretty much just two things.

The main bit:
                                               E
e|--4---4---4---4---2---2---2---2---4---4------0---0---0---0----|
B|----0---0---0---0---0---0---0---0---0---0----0---0---0---0----|
G|---------------------------------------------1---1---1---1----|
D|---------------------------------------------2---2---2---2----|
A|-----------------------------------------------2---2---2---2--|
E|-----------------------------------------------0---0---0---0--|

Aaand, the chorus:
    A                                E
e|--------------------------0---0------------------------------0---0--|
B|--2---2---2---2---2---2-----2---2----0-------0-------0-------0---0--|
G|--2---2---2---2---2---2-----2---2--------1-------1-------1----------|
D|----2---2---2---2---2---2---2---2--------2-------2-------2----------|
A|----0---0---0---0---0---0---0---0-----------------------------------|
E|-----------------------------------0---0---0---0---0---0---0---0----|

That's it for the guitar... I'd have tabbed out the string arrangements
but... man... that's a lot.
Tap to rate this tab
 
# A B C D E F G H I J K L M N O P Q R S T U V W X Y Z