Song name
# A B C D E F G H I J K L M N O P Q R S T U V W X Y Z

Peace - Bblood tab

PEACE - BBLOOD (official website - http://peaceforeverever.co.uk/)

MAIN CHORUS RIFF

|---------------------------------|----------------------------------|
|---------------------------------|----------------------------------|
|---------------------------------|----------------------------------|
|---------------------------------|---------9-------------9--9--7--9-|
|-------------------------10-8-8--|8h10----------8h10----------------|
|12-12---10-10-10--7-7-7----------|------7-------------7-------------|

VERSE PART

|---------------------------------|----------------------------------|
|---------------------------------|----------------------------------|
|---------------------------------|----------------------------------|
|---------------------------------|----------------------------------|
|5---5---5---5---5---5---5---5----|-8---8----8---8---7---7---7---7---|
|---------------------------------|----------------------------------|

I'll work on the bridge/rest of the verse soon, tired now though so sorry :')
Tap to rate this tab
# A B C D E F G H I J K L M N O P Q R S T U V W X Y Z