Song name
# A B C D E F G H I J K L M N O P Q R S T U V W X Y Z

Peace - Bloodshake tab

USE LOADS OF DELAY AND REVERB!!! (and some distortion - only a little bit)

VERSE

GUITAR 1:

|12-12---10-10-10--7-7-7----------|------7-------------7-------------|
|-------------------------10-8-8--|8h10----------8h10----------------|
|---------------------------------|---------9-------------9--9--7--9-|
|---------------------------------|----------------------------------|
|---------------------------------|----------------------------------|
|---------------------------------|----------------------------------|

GUITAR 2:

|---------------------------------|8-8-8--12---------0-0-0--12-------|
|---------------------------------|----------12----------------12----|
|---------------4--4-4s7--7-7-----|----------------------------------|
|2--2-2s4--4-4--------------------|----------------------------------|
|---------------------------------|----------------------------------|
|---------------------------------|----------------------------------|

BASS:

|---------------------------------|----------------------------------|
|---------------------------------|----------------------------------|
|----------------10---10---10-----|7---7---7-------------------------|
|8---8---8------------------------|-----------------10---10---10-----|

CHORUS

GUITAR 1:

|---------------------------------|----------------------------------|
|---------------------------------|----------------------------------|
|9-9-9-9-9-9-9-9-9-9-9-9-9-9-9-9--|7-7-7-7-7-7-7-7-7-7-7-7-7-7-7-7---|
|---------------------------------|----------------------------------|
|---------------------------------|----------------------------------|
|---------------------------------|----------------------------------|
(Yes, those are 12's and 10's below)
|---------------------------------|----------------------------------|
|8-8-8-8-8-8-8-8-8-8-8-8-8-8-8-8--|1010101010101010-8-8-8-8-8-8-8-8--|
|9-9-9-9-9-9-9-9-9-9-9-9-9-9-9-9--|1212121212121212-1010101010101010-|
|---------------------------------|----------------------------------|
|---------------------------------|----------------------------------|
|---------------------------------|----------------------------------|

GUITAR 2:

|---------------------------------|----------------------------------|
|131210--131210--131210--131210---|131210--131210--131210--131210----|
|------12------12------12------12-|------12------12------12------12--|
|---------------------------------|----------------------------------|
|---------------------------------|----------------------------------|
|---------------------------------|----------------------------------|

BASS

|---------------------------------|----------------------------------|
|---------------------------------|----------------------------------|
|---------------------------------|----------------------------------|
|8---8---8---8---8---8---8---8----|10--10--10--10--10--10--10--10----|


BRIDGE (BUILD UP)

BASS

|----------------------------------------|
|----------------------------------------|
|----------------------------------------|
|8--8--7--7--7--5--5--5--3--3--3--3--3p0-|

GUITAR 1

|12-12-10-10-10-7-7-7-------------|12-12-10-10-10-7-7-7--------------|
|---------------------10-8-8-8h10-|---------------------10-8-8-8-----|
|---------------------------------|------------------------------9---|
|---------------------------------|----------------------------------|
|---------------------------------|----------------------------------|
|---------------------------------|----------------------------------|

GUITAR 2

|---------------------------------|----------------------------------|
|---------------------------------|12--12--12--12--12--12--12--12----|
|9---9---9---9---9---9---9---9----|----------------------------------|
|---------------------------------|----------------------------------|
|---------------------------------|----------------------------------|
|---------------------------------|----------------------------------|

BRIDGE (EPIC BIT)

GUITAR 1 (Same as verse, a few variants on a few notes but you can add them as you please):

|12-12---10-10-10--7-7-7----------|------7-------------7-------------|
|-------------------------10-8-8--|8h10----------8h10----------------|
|---------------------------------|---------9-------------9--9--7--9-|
|---------------------------------|----------------------------------|
|---------------------------------|----------------------------------|

GUITAR 2 CHORDS (These are played sharply and then tremolo picked super fast over and
over as the whole song escalates, listen to recording for timings):

|17 CHORD 1
|17
|16
|X
|X
|X

|15 CHORD 2
|17
|16
|X
|X
|X

|19 CHORD 3
|17
|16
|X
|X
|X

At one point the e-string slides all the way up to 20, if you're familiar with the
recording you should be able to pick out and play this as you please. Everything at this
point is quite all over the place, so however you play these chords really doesn't 
matter, as long as you use LOADS of delay and reverb (maybe even a tiny bit of gain for some
crunch). Enjoy, really fun + incredible song to play. ^^
Tap to rate this tab
# A B C D E F G H I J K L M N O P Q R S T U V W X Y Z