Song name
# A B C D E F G H I J K L M N O P Q R S T U V W X Y Z

Peace - California Daze tab

-------------------------------------------------------------------------------
                             Peace - California Daze
-------------------------------------------------------------------------------
Tuning: Standard

Rhythm:

e|-----------------------------------------------x---x-0------------|
B|---------------------------------------------7-x---x-0------------|
G|-------9-----------9-----------9-9---7--6----7-x-6-x-1--2-2-/4/6--|
D|----11----------11----------11---11--9--7----7-x-7-x-2------------|
A|-12------12--11------11--10------------------5-x-7-x-2------------|
E|-----------------------------------------------x-5-x-0------------|

Lead:

e|------17/---------14/-------=-17-17-15-14-15----------------------|
B|---------------------------------------------17/-14/--13-13-13-14-|
G|------------------------------------------------------------------|
D|------------------------------------------------------------------|
A|------------------------------------------------------------------|
E|------------------------------------------------------------------|

Rhythm is played twice, the lead comes in the second time.
Tap to rate this tab
# A B C D E F G H I J K L M N O P Q R S T U V W X Y Z