Song name
# A B C D E F G H I J K L M N O P Q R S T U V W X Y Z

Peace - Wraith tab

Tabbed by LiamConnolly

intro/verse
e|----------------------------------------------------------------------------|
B|----------------------------------------------------------------------------|
G|--14-12------------------14-14-12-------------------------------------------|
D|--------14-12---------------------14-12-------------------------------------|   
A|--------------15-12-12------------------15--12------------------------------|  
E|----------------------------------------------------------------------------|

pre-chorus
e|----------------------------------------------------------------------------|
B|----------------------------------------------------------------------------|
G|--14--14--14--14--12-12-12-12-16-16-16------12-12-13-14------12-12-13-14----|
D|----------------------------------------------------------------------------|
A|----------------------------------------------------------------------------|
E|----------------------------------------------------------------------------|

Chorus
e|-------------------------------------------15---12---15b---12---------------|
B|--15---13---15---13-------13-----13-----------------------------------------|
G|----------------------14-----14---------------------------------------------|
D|----------------------------------------------------------------------------|
A|----------------------------------------------------------------------------|
E|----------------------------------------------------------------------------|
Tap to rate this tab
# A B C D E F G H I J K L M N O P Q R S T U V W X Y Z