Song name
# A B C D E F G H I J K L M N O P Q R S T U V W X Y Z

Peace - Follow Baby tab

e|-4-4-4-4----8--8--8----|
B|-4-4-4-4----8--8--8----|
G|-5-5-5-5----9--9--9----|  x3
D|-6-6-6-6----10-10-10---|
A|-6-6-6-6----10-10-10---|
E|-4-4-4-4----8--8--8----|

e|-9--9--9--9---7-7-7-7---4---|
B|-9--9--9--9---7-7-7-7---4---|
G|-10-10-10-10--8-8-8-8---5---|
D|-11-11-11-11--9-9-9-9---6---|
A|-11-11-11-11--9-9-9-9---6---|
E|-9--9--9--9---7-7-7-7---4---|
Tap to rate this tab
# A B C D E F G H I J K L M N O P Q R S T U V W X Y Z