Song name
# A B C D E F G H I J K L M N O P Q R S T U V W X Y Z

Peace - Follow Baby tab

INTRO:

e|---------------------------------------------------------------------------|
B|---------------------------------------------------------------------------|
G|--5--5--5/13-x--13--13-------5--5--5/13-x--13------5--5--5/13-x--13--------|
D|--x--x--x/x--x--x---x--------x--x--x/x--x--x-------x--x--x/x--x--x---------|
A|--3--3--3/11-x--11--11-------3--3--3/11-x--11------3--3--3/11-x--11--------|
E|---------------------------------------------------------------------------|

e|---------------------------------------------------------------------------|
B|---------------------------------------------------------------------------|
G|--10--10--10--10/-8--8--8/10--10-----5~------------------------------------|
D|--x---x---x---x-/-x--x--x/x---x------x~------------------------------------|
A|--8---8---8---8-/-6--6--6/8---8------3~------------------------------------|
E|---------------------------------------------------------------------------|

e|---------------------------------------------------------------------------|
B|---------------------------------------------------------------------------|
G|-16b18r16--13~---------------5~--------------------------------------------|
D|-----------------15~-13~-----x~--------------------------------------------|
A------------------------------3~--------------------------------------------|
E|---------------------------------------------------------------------------|

VERSE:

   e|---------------------------------------------------------14-------------|
   B|--12~-------------16~---------12------------12~----------------12-------|
   G|---------13~-----------------------14--------------14~---------------13-|
X2 D|------------------------------------------------------------------------|
   A|------------------------------------------------------------------------|

CHORUS:

e|---------------------------------------------------------------------------|
B|----4~------------4~-----------4~-----------4~-----------------------------|
G|----4~------------4~-----------4~-----------4~-----------------------------|
D|----2~------------2~-----------2~-----------2~-----------------------------|
A|---------------------------------------------------------------------------|
E|---------------------------------------------------------------------------|


By Niall Goldie

No copryright infringment intended
Tap to rate this tab
 
# A B C D E F G H I J K L M N O P Q R S T U V W X Y Z