Song name
# A B C D E F G H I J K L M N O P Q R S T U V W X Y Z

Peace - Float Forever tab

Tuning: EADGBe
Capo: 0

INTRO (x4):

e|---------------------------------------12------------------|
B|---------12-------------10-------------12------------------|
G|------------12-------------11----------12----11------------|
D|------12-------------12-----------14---------12------------|
A|---10-----------------------------14---------12------------|
E|------------------10--------------12-----------------------|

e|------------------------------------------------12---------|
B|----------8---------------8--------------12----------------|
G|------------9---------------8---------------12-------------|
D|-------------------------------------12--------------------|
A|-----10--------------10-----------10-----------------------|
E|---8---------------8---------------------------------------|


CHORUS PT.1 (x3):

e|------------8-----------------------------------------------|
B|--\8-------------8--------------------12-------------10-----|
G|--\9------------------9------------------12-------------11--|
D|--\10---------10------------------12--------------12--------|
A|--\10----10--------10----------10---------------------------|
E|--\8-------------------------------------------10-----------|

CHORUS PT.2 (x1):

e|------------8-------------------------8----------------------|
B|--\8-------------8-----------\7------------8-----------------|
G|--\9------------------9------\8------------------9-----------|
D|--\10---------10-------------\9---------10-------------------|
A|--\10----10--------10--------\9----10---------10-------------|
E|--\8-------------------------\7------------------------------|
Tap to rate this tab
# A B C D E F G H I J K L M N O P Q R S T U V W X Y Z