Song name
# A B C D E F G H I J K L M N O P Q R S T U V W X Y Z

Peace - White Noise tab

-------------------------------------------------------------------------------
                             White Noise - Peace cover
-------------------------------------------------------------------------------

Tuning: Standard

Lead:
e|--------------------------------3--------------------------------------------|
B|------------------------3h4-6-----------3-3----------------------------------|
G|------------5-5---5-5-------------0-0-------3-5------------------------------|
D|-----------------------------------------------------------------------------|
A|-----------------------------------------------------------------------------|
E|-----------------------------------------------------------------------------|

e|--------------------------------3---------------6/8--------------------------|
B|------------------------3h4-6-----------3-3----------------------------------|
G|------------5-5---5-5-------------0-0-------3--------------------------------|
D|-----------------------------------------------------------------------------|
A|-----------------------------------------------------------------------------|
E|-----------------------------------------------------------------------------|

Rhythm:
Cm A# F
Cm Gm F

Verse
Cm

I don't need you...
Cm F

Just gotta get my back
Cm

Chorus
Cm A# F
Cm Gm F

Solo
e|-----------------------------------------------------------------------------|
B|-----------------------------------------------------------------------------|
G|---5-5---5-5---5-3-----5-5---5-5---5-3---3--2--------------------------------|
D|-------------------------------------------------5--3------------------------|
A|-----------------------------------------------------------------------------|
E|-----------------------------------------------------------------------------|


e|--------------------------------------------------------------------- 11-13--|
B|-----------------9--------------------------------------------------- 11-11--|
G|--11b12b11-8-11b12b11-8---------8-10-8----8-10-8--11b12b11b12b11- 11-11------|
D|-------------------------------10--------10----------------------------------|
A|-----------------------------------------------------------------------------|
E|-----------------------------------------------------------------------------|

--Another Brick In The Wall--

F -then- Cm

All in all you're...
Cm A#


************************************

| /   slide up
| \   slide down
| h   hammer-on
| p   pull-off
| ~   vibrato
| +   harmonic
| x   Mute note
| b   Bend
| pb  Pre-bend
| br  Bend release
| pbr Pre-bend release
| brb Bend release bend

************************************
Tap to rate this tab
 
# A B C D E F G H I J K L M N O P Q R S T U V W X Y Z