Song name
# A B C D E F G H I J K L M N O P Q R S T U V W X Y Z

Peace - Money tab

-------------------------------------------------------------------------------
                             Money - Peace
-------------------------------------------------------------------------------
Tabbed by: HuggyBear999

Tuning:EADGBe

GUITAR:

e|---8--8--6--8--8--6--8--10--------------|  X3
B|---------------------------11--8--11----|
G|----------------------------------------|
D|----------------------------------------|
A|----------------------------------------|
E|----------------------------------------|

e|---6--8--10--------6--8--10-------------|  
B|------------11--8------------11--8------|
G|----------------------------------------|
D|----------------------------------------|
A|----------------------------------------|
E|----------------------------------------|


BASS:

G|----------------------------------------|
D|----------------------------------------|
A|---------5--------5-------5--------5----|
E|---3--3-----3--3-----3--3----3--3-------|

G|----------------------------------------|
D|----------------------------------------|
A|-----------13----------13---------------|
E|---11--11------11--11-------------------|

G|----------------------------------------|
D|----------------------------------------|
A|---------10--------10-------------------|
E|---8--8------8--8-----------------------|

Thanks for viewing, leave a rating and comment for any questions!
Tap to rate this tab
# A B C D E F G H I J K L M N O P Q R S T U V W X Y Z