Guitaretab - guitar tabs
Song name
# A B C D E F G H I J K L M N O P Q R S T U V W X Y Z
Home / P / Peach / You Lied tab

Peach - You Lied tab

I noticed that there was only the Tool version of this song tabbed, so I thought i'd put 
the original version. Also, because of the poor quality recording of the original song, 
only tabbed one guitar because the other is quite difficult to hear.

Drop D tuning (As with all great songs;)

Bass Intro

Clean W/Delay


e|---14--14---12--12---14--14---15--15---14--14---12--12---14--14---12--12-|
b|-15--15---14--14---15--15---17--17---15--15---14--14---15--15---14--14---|
g|-------------------------------------------------------------------------|
d|-------------------------------------------------------------------------|
a|-------------------------------------------------------------------------|
D|-------------------------------------------------------------------------|


e|-------------------------------------------------------|
b|-12-12-12-12-12-12-12-12-12-12-13-13-13-13-10-10-10h12-|
g|-------------------------------------------------------| (x3)
d|-------------------------------------------------------|
a|-------------------------------------------------------|
D|-------------------------------------------------------|


e|-------------------------------------------------|
b|-13-12-13-12-13-12-13-12-13-12-13-12-13-12-13-12-|
g|-------------------------------------------------|
d|-------------------------------------------------|
a|-------------------------------------------------|
D|-------------------------------------------------|


Mega distortion


e|------------------------------------------|
b|------------------------------------------|
g|------------------------------------------|
d|-9-9-7h9-x-x-9--7h9-x-x-9--7h9-x-x-10-9-7-|  (x4)
a|-9-9-7h9-x-x-9--7h9-x-x-9--7h9-x-x-10-9-7-|
D|-9-9-7h9-x-x-9--7h9-x-x-9--7h9-x-x-10-9-7-|
                                    pm......

Slight distortion w/delay


e|---14--14---12--12---14--14---15--15---14--14---12--12---14--14---12--12-|
b|-15--15---14--14---15--15---17--17---15--15---14--14---15--15---14--14---|
g|-------------------------------------------------------------------------|
d|-------------------------------------------------------------------------|
a|-------------------------------------------------------------------------|
D|-------------------------------------------------------------------------|


e|--------------------------------------------------------------------|
b|--------------------------------------------------------------------|
g|--------------------------------------------------------------------|
d|-9~-9-9-9--9-9--9~-9-9-9--9-9--9~-9-9-9--9-9--9~-9-9-10-9-7--9(hold)|
a|--------------------------------------------------------------------|
D|--------------------------------------------------------------------|
(Something along those lines, just make sure you play in time with the main riff)


Quietly, slight distortion


e|--------------------------------------------------------|
b|--------------------------------------------------------|
g|--------------------------------------------------------|
d|-9-7--9-7--9-7--9-7--9p7--9-9p7--9p7--9p7--9p7--9(hold)-|
a|----9----9----9----9----9------9----9----9----9---------|
D|--------------------------------------------------------|


"Setting sun can't shine now you're gone..."


e|-------------------------------------------------|
b|-------------------------------------------------|
g|-------------------------------------------------| (Keep playing at a
d|-------------------------------------------------|  steady pace beneath
a|-------------------------------------------------|  the lyrics)
D|-9-9-9-9-9-9-9-9-9-9-9-9-9-9-9-9-9-9-9-9-9-9-9-9-|
PM.................................................


Mega distortion


e|------------------------------------------|
b|------------------------------------------|
g|------------------------------------------|
d|-9-9-7h9-x-x-9--7h9-x-x-9--7h9-x-x-10-9-7-|  (x2)
a|-9-9-7h9-x-x-9--7h9-x-x-9--7h9-x-x-10-9-7-|
D|-9-9-7h9-x-x-9--7h9-x-x-9--7h9-x-x-10-9-7-|
                                   pm.......


Slight distortion


e|---14--14---12--12---14--14---15--15---14--14---12--12---14--14---12--12-|
b|-15--15---14--14---15--15---17--17---15--15---14--14---15--15---14--14---|
g|-------------------------------------------------------------------------|
d|-------------------------------------------------------------------------|
a|-------------------------------------------------------------------------|
D|-------------------------------------------------------------------------|


Distortion W/flange


e|------------------------------------------------------------------------|
b|------------------------------------------------------------------------|
g|------------------------------------------------------------------------|
d|------------------------------------------------------------------------|
a|-7~-7-7-7-7-7--7h9-9-9-9-9-9--9/12-12-12-12-12-12--12/14-14-14-15p14-12-|
D|------------------------------------------------------------------------|
(x2)


e|-------------------------------------------------------------------|
b|-------------------------------------------------------------------|
g|-------------------------------------------------------------------| (x2)
d|-9~-9-9-9--9-9--9~-9-9-9--9-9--9~-9-9-9--9-9--9~-9-9-10-9-7-9(hold)|
a|-------------------------------------------------------------------|
D|-------------------------------------------------------------------|


Quietly, slight distortion

[ Tab from: http://www.guitaretab.com/p/peach/157333.html ]
e|--------------------------------------------------------|
b|--------------------------------------------------------|
g|--------------------------------------------------------|
d|-9-7--9-7--9-7--9-7--9p7--9-9p7--9p7--9p7--9p7--9(hold)-|
a|----9----9----9----9----9------9----9----9----9---------|
D|--------------------------------------------------------|


"Time heals time, congeals around you. Painless hours of endless motion..."


e|-------------------------------------------------|
b|-------------------------------------------------|
g|-------------------------------------------------| (Keep playing at a
d|-------------------------------------------------|  steady pace beneath
a|-------------------------------------------------|  the lyrics)
D|-9-9-9-9-9-9-9-9-9-9-9-9-9-9-9-9-9-9-9-9-9-9-9-9-|
PM.................................................


"Setting sun can't shine now you're gone, inside sleeping my heart..."


e|------------------------------------------|
b|------------------------------------------|
g|------------------------------------------|
d|-9-9-7h9-x-x-9--7h9-x-x-9--7h9-x-x-10-9-7-|  (x4)
a|-9-9-7h9-x-x-9--7h9-x-x-9--7h9-x-x-10-9-7-|
D|-9-9-7h9-x-x-9--7h9-x-x-9--7h9-x-x-10-9-7-|
                                    pm......


Distortion W/flange


e|------------------------------|
b|------------------------------|
g|------------------------------|
d|-9~-9~-9-9-9--10-10-10--7-7h9-| (x2)      Note: With the 9's, just do
a|------------------------------|           random vibrato's so it sounds
D|------------------------------|           right.


e|------------------------------------------------------------------------->
b|------------------------------------------------------------------------->
g|------------------------------------------------------------------------->
d|-7h9-9-9-9--9-9--9/11-11-11-11--11-11--11/12-12-12-12--12-12--12/14-14-14>
a|------------------------------------------------------------------------->
D|------------------------------------------------------------------------->

<----------|
<----------|
<----------|
<-15p14-12-|
<----------|
<----------|


e|------------------------------------------------------------------------|
b|------------------------------------------------------------------------|
g|------------------------------------------------------------------------|
d|-7~-7-7-7-7-7--7h9-9-9-9-9-9--9/12-12-12-12-12-12--12/14-14-14-15p14-12-|
a|------------------------------------------------------------------------|
D|------------------------------------------------------------------------|


e|------------------------------------------------------------------------|
b|------------------------------------------------------------------------|
g|------------------------------------------------------------------------|
d|------------------------------------------------------------------------|
a|-7~-7-7-7-7-7--7h9-9-9-9-9-9--9/12-12-12-12-12-12--12/14-14-14-15p14-12-|
D|------------------------------------------------------------------------|
(x2)


e|----------------------------------------------------------------------|
b|----------------------------------------------------------------------|
g|----------------------------------------------------------------------|
d|-9~-9-9-9--9-9--9~-9-9-9--9-9--9~-9-9-9--9-9--9~-9-9-9--9-9--9(Hold)--|
a|----------------------------------------------------------------------|
D|----------------------------------------------------------------------|


Clean W/Delay


e|---14--14---12--12-------------------------------------------------------|
b|-15--15---14--14---12-12-12-12-12-12-12-12-12-12-12-12-12-12-12-12-12----|
g|-------------------------------------------------------------------------|
d|-------------------------------------------------------------------------|
a|-------------------------------------------------------------------------|
D|-------------------------------------------------------------------------|
(x4)


e|-------------------------------------------------------|
b|-12-12-12-12-12-12-12-12-12-12-13-13-13-13-10-10-10h12-|
g|-------------------------------------------------------| (x4)
d|-------------------------------------------------------|
a|-------------------------------------------------------|
D|-------------------------------------------------------|

"YOU LIEEEEEEEEEEEEEEEEEEEEEEEEEEEEEEEEEEEEEEED" Mega Distortion.

e|------------------------------------------|
b|------------------------------------------|
g|------------------------------------------|
d|-9-9-7h9-x-x-9--7h9-x-x-9--7h9-x-x-10-9-7-|  (x2)
a|-9-9-7h9-x-x-9--7h9-x-x-9--7h9-x-x-10-9-7-|
D|-9-9-7h9-x-x-9--7h9-x-x-9--7h9-x-x-10-9-7-|
                                    pm......

e|-------------------------------------------------------------|
b|-------------------------------------------------------------|
g|-------------------------------------------------------------|
d|-9-9-7h9-x-x-9---------10-10--7h9--9-7h9-x-x-9---------10-10-|
a|-9-9-7h9-x-x-9-(Pause)-10-10--7h9--9-7h9-x-x-9-(Pause)-10-10-|
D|-9-9-7h9-x-x-9---------10-10--7h9--9-7h9-x-x-9---------10-10-|


e|----------------------------------------------------------------|
b|----------------------------------------------------------------|
g|----------------------------------------------------------------|
d|-7h9--9-7h9-x-x-9---------10-10--7h9--9-7h9-x-x-9---------10-10-|
a|-7h9--9-7h9-x-x-9-(Pause)-10-10--7h9--9-7h9-x-x-9-(Pause)-10-10-|
D|-7h9--9-7h9-x-x-9---------10-10--7h9--9-7h9-x-x-9---------10-10-|

...and that's it.

The solo bit is open for interpretation really. The way I tabbed it is how I like to 
it, and i'm almost positive Simon's playing something different to what I tabbed. This tab 
100%, but I hope it helps you get started.

Ps. It's my first so be kind :D

LONG LIVE SOTT/PEACH \m/
Related for You Lied tab