Song name
# A B C D E F G H I J K L M N O P Q R S T U V W X Y Z

Pearl And The Beard - Headache For A Heartache tab

Standard tuning
Capo 7

This is originally played on a ukulele, but I transcribed it for guitar.
Tabbed based on this performance: http://www.youtube.com/watch?v=S-pKXZhXmyo

Intro:
e|---------------------------------------------------------------------------|
B|----0-0---0-0---0-0---0-0---0-0---0-0---0-0---0-0--------------------------|
G|----0-0---0-0---0-0---0-0---0-0---0-0---0-0---0-0--------------------------|
D|--0-----0-----1-----1-----2-----2-----1-----1------------------------------|
A|---------------------------------------------------------------------------|
E|---------------------------------------------------------------------------|

e|---------------------------------------------------------------------------|
B|----0-0---0-0---0-0---0-0---0-0---0-0---0-0---0-0--------------------------|
G|----0-0---0-0---0-0---0-0---0-0---0-0---0-0---0-0--------------------------|
D|--0-----0-----1-----1-----2-----2-----4-----5------------------------------|
A|---------------------------------------------------------------------------|
E|---------------------------------------------------------------------------|

Verse: ("blame it on...")
e|---------------------------------------------------------------------------|
B|----0-0---0-0---0-0---0-0---0-0---0-0---0-0---0-0--------------------------|
G|----0-0---0-0---0-0---0-0---0-0---0-0---0-0---0-0--------------------------|  x2
D|--0-----0-----1-----1-----2-----2-----4-----5------------------------------|
A|---------------------------------------------------------------------------|
E|---------------------------------------------------------------------------|

e|----0-0---0-0---0-0---0-0---0-0---0-0---0-0---0-0--------------------------|
B|----2-2---2-2---2-2---2-2---1-1---1-1---1-1---1-1--------------------------|
G|--2-----2-----2-----2-----0-----0-----0-----0------------------------------|
D|---------------------------------------------------------------------------|
A|---------------------------------------------------------------------------|
E|---------------------------------------------------------------------------|

Intro

Verse ("long ago...")

Chorus:
e|---------------------------------------------------------------------------|
B|----1-1---1-1---1-1---1-1---0-0---0-0---0-0---0-0--------------------------|
G|----0-0---0-0---0-0---0-0---0-0---0-0---0-0---0-0--------------------------|  x2
D|--2-----2-----2-----2-----2-----2------------------------------------------|
A|--------------------------------------0------------------------------------|
E|--------------------------------------------3------------------------------|

e|---------------------------------------------------------------------------|
B|----1-1---1-1---1-1---1-1---0-0---0-0---0-0---0-0---0-0---0-0---0-0---0-0--|
G|----0-0---0-0---0-0---0-0---0-0---0-0---0-0---0-0---0-0---0-0---0-0---0-0--|
D|--2-----2-----2-----2-----1-----1-----1-----1-----1-----1-----1-----1------|
A|---------------------------------------------------------------------------|
E|---------------------------------------------------------------------------|

first half of Intro

Verse ("she holds her breath...")

first half of Intro

Verse ("he'll boast his badge...")

Chorus

Intro

Verse ("cartesian plane...")

Chorus

Intro

Verse ("blame it on...")

Refrain:
e|----0-0---0-0----------|
B|----1-1---1-1----------|
G|--0-----0-----0~-------|
D|-----------------------|
A|-----------------------|
E|-----------------------|

Chorus

Ending:
e|---------------------------------------------------------------------------|
B|----0-0---0-0---0-0---0-0---0-0---0-0---0-0---0-0--------------------------|
G|----0-0---0-0---0-0---0-0---0-0---0-0---0-0---0-0--------------------------|  x2
D|--0-----0-----1-----1-----2-----2-----4-----5------------------------------|
A|---------------------------------------------------------------------------|
E|---------------------------------------------------------------------------|
Tap to rate this tab
 
# A B C D E F G H I J K L M N O P Q R S T U V W X Y Z