Song name
# A B C D E F G H I J K L M N O P Q R S T U V W X Y Z

Pearl Jam - Dead Man Walking tab

#----------------------------------PLEASE NOTE----------------------------------#
# This file is the author's own work and represents their interpretation of the #
# song. You may only use this file for private study, scholarship, or research. #
#-------------------------------------------------------------------------------#

Dropped-D tuning

-|----------------------------------------------------------------------|-----|
-|----------------------------------------------------------------------|-----|
-|-------9--7-\-5---5---5---7b9r7-\-2-2-2-2-2---0---4---4---4---5-4-5---|-----|
-|-------0--0-------0---0-------------0-------0---0---0---0---0---------|-----|
-|----------------------------------------------------------------------|-----|
-|-0--0-------0---5---5---5-----------2---------------------------------|-----|
                                                                      2x

-|------------------------------|----------------------------------|----------|
-|------------------------------|----------------------------------|----------|
-|------------------------------|----------------------------------|----------|
-|------------------------------|----------------------------------|----------|
-|--------------------0-0-0-0-2-|-------5---3-----------2---3-2-3--|----------|
-|-0-0-0-0--0--0--0-0-0-0-0-0-2-|-3-3-3-3-3-3-3-3-3-3-3-3-3-3-3-3--|----------|
                                Verse                           6x
	Settling of my every step
	Inching off of the earth

-|------------------------------------------------------------|---------------|
-|------------------------------------------------------------|---------------|
-|------------------------------------------------------------|---------------|
-|-2----3--3-3-3--3-3-3--3-3-3-3-3-3-3--3-3-3--3-3-3--3-3-3-/-|---------------|
-|-0-0--1--1-1-1--1-1-1--1-1-1-2-2-2-2--2-2-2--2-2-2--2-2-2-/-|---------------|
-|------------------------------------------------------------|---------------|
Prechorus
	Is magnified by the things i've done

-|-------------------------------------0---------------------0-------------|--|
-|------10-10---------------------3------3----3----------3-------3---------|--|
-|------10-10-----------------------2------2---2-0-1-1-1---1---1-----------|--|
-|------------------------7--0--0----------------0-0-0-0-------------------|--|
-|-8--8--------7--7---7-7-7--0---------------------------------------0-----|--|
-|-8--8--------7--7---7-7-7--0---------------------------------------0-0-2-|--|
 Chorus
	The thing that i've become

-|----------------------------------|-----------------------------------------|
-|----------------------------------|-----------------------------------------|
-|----------------------------------|-----------------------------------------|
-|----------------------------------|-----------------------------------------|
-|-------5---3-----------2---3-2-3--|-----------------------------------------|
-|-3-3-3-3-3-3-3-3-3-3-3-3-3-3-3-3--|-----------------------------------------|
 Verse                            6x
	Every lift of my hand
	Coffee cup up and back

-|----------------------------------------------------------|-----------------|
-|----------------------------------------------------------|-----------------|
-|----------------------------------------------------------|-----------------|
-|-2----3--3-3-3--3-3-3--3-3-3-3-3-3-3--3-3-3--3-3-3--3-3-3-|-----------------|
-|-0-0--1--1-1-1--1-1-1--1-1-1-2-2-2-2--2-2-2--2-2-2--2-2-2-|-----------------|
-|----------------------------------------------------------|-----------------|
 Pre-chorus
	Is magnified by the things i've done

-|----------------------------------------------------------|-----------------|
-|----------------------------------------------------------|-----------------|
-|----------------------------------------------------------|-----------------|
-|-3--3-3--3-3-3--3-3-3--3-3-3-3-3-3-3--3-3-3--3-3-3--3-3-3-|-----------------|
-|-1--1-1--1-1-1--1-1-1--1-1-1-2-2-2-2--2-2-2--2-2-2--2-2-2-|-----------------|
-|----------------------------------------------------------|-----------------|

	The things i've seen the things i've caused

-|-----------------------------0--------------------0----------------|--------|
-|-------------------------3-----3---3----------3-------3------------|--------|
-|---------------------------2-----2--2-0-1-1-1---1---1------1-1-/2--|--------|
-|---------------------0-0--------------0-0-0-0--------------0-0-----|--------|
-|-8--8--\--7--7-------0---------------------------------------------|--------|
-|-8--8--\--7--7-------0---------------------------------------------|--------|
 Chorus
	I'm a dead man walking

-|--------------------------------0-------|-----------------------------------|
-|----3---3h5p3-3---3---------3-------3---|-----------------------------------|
-|-2----2---------4---0-1-1-1---1---1-----|-----------------------------------|
-|-0------------------0-0-0-0-------------|-----------------------------------|
-|----------------------------------------|-----------------------------------|
-|----------------------------------------|-----------------------------------|


-|----------------------------------------0----------------------------------|
-|---------------------3---------3-3--------3----------3--3--3--3--3--3------|
-|-2---1---2--0-1---2----2--0-1--1-1-0-2-------0-1-1-1-1--1--1--1--1--1------|
-|-0---0---0----0---0---------0--------0---------0-0-0-0--0--0--0--0--0------|
-|---------------------------------------------------------------------------|
-|----------------------------------------------------------------------0-2--|
 Interlude
	The hammer that i once brung down now hovers over me
	Cast a shadow, a cross onto me

-|---------------------------------|------------------------------------------|
-|---------------------------------|------------------------------------------|
-|---------------------------------|------------------------------------------|
-|---------------------------------|------------------------------------------|
-|-------5---3-----------2---3-2-3-|------------------------------------------|
-|-3-3-3-3-3-3-3-3-3-3-3-3-3-3-3-3-|------------------------------------------|
                                4x

-|-----------------------------------------------------------|----------------|
-|-----------------------------------------------------------|----------------|
-|-----------------------------------------------------------|----------------|
-|-2----3--3-3-3--3-3-3--3-3-3-3-3-3-3--3-3-3--3-3-3--3-3-3--|----------------|
-|-0-0--1--1-1-1--1-1-1--1-1-1-2-2-2-2--2-2-2--2-2-2--2-2-2--|----------------|
-|-----------------------------------------------------------|----------------|
 Pre-chorus
	The hallways are all mocking me

-|-----------------------------------------------------------|----------------|
-|-----------------------------------------------------------|----------------|
-|-----------------------------------------------------------|----------------|
-|-3--3-3--3-3-3--3-3-3--3-3-3-3-3-3-3--3-3-3--3-3-3--3-3-3--|----------------|
-|-1--1-1--1-1-1--1-1-1--1-1-1-2-2-2-2--2-2-2--2-2-2--2-2-2--|----------------|
-|-----------------------------------------------------------|----------------|

	What i've become, they're all mocking me

-|----------------|-------------5--5--5--5--|----------------|----------------|
-|----------------|--------3--3-3--3--3--3--|----------------|----------------|
-|----------------|-------------------------|----------------|----------------|
-|----------------|--------0--0-------------|----------------|----------------|
-|-8--8-----7--7--|--0--0-------------------|-8--8-----7--7--|----------------|
-|-8--8-----7--7--|--0--0-------------------|-8--8-----7--7--|----------------|
 Chorus         3x                                         3x
	I'm a dead man walking a dead man walking
	A dead man walking

-|---------------------------|---------------------------|--------------------|
-|---------------------------|---------------------------|--------------------|
-|-------------7-------------|-------------7-------------|--------------------|
-|--------7------------------|-------7-------------------|--------------------|
-|--5--5----5----5--5--5-5-0-|-4--4-----4----4--4--4-4-0-|--------------------|
-|--5--5----5----5--5--5-5-0-|-4--4-----4----4--4--4-4-0-|--------------------|


-|----------------------------|----------|------------------------------------|
-|----------------------------|----------|------------------------------------|
-|--------------7-------------|----------|------------------------------------|
-|--------7-------------------|----------|------------------------------------|
-|-3-3-3-----3----3--3--3-3-0-|-2----2/--|------------------------------------|
-|-3-3-3-----3----3--3--3-3-0-|-2----2/--|------------------------------------|


-|--------------------------------------------------------------------|-------|
-|--------------------------------------------------------------------|-------|
-|-------9-----7--\5----5---5---7------2-2-2-2---0--4---4---5-4-5-----|-------|
-|-------0-----0---0----0--------------0-0-0-0--------0---0--------0--|-------|
-|-0--0-----0-----0------------------------------------------------0--|-------|
-|--------------------5---5---5---5-0--2---2---2-------------------0--|-------|

This song is really beautiful, and pretty easy to play. It sounds best acoustic,
but it sounds pretty good on electric too.
Tap to rate this tab
# A B C D E F G H I J K L M N O P Q R S T U V W X Y Z