Song name
# A B C D E F G H I J K L M N O P Q R S T U V W X Y Z

Pearl Jam - Animal tab

Help us improve GuitareTab! Take a short survey!
Pearl Jam
Animal
from Vs. 1993

main riff stone plays
----------------------------
----------------------------
----------------------------
-----7----------------------
-------6-5------------------
--5~------------------------
  
-------------------------------------------------------------------------
-------------------------------------------------------------------------
------------7-7-7/-------------7-7-7/------------------------------------
-----5h7p5--7-7-7/-------------7-7-7/---------7--------7------------5h7p5
-5h7--------5-5-5/-------------5-5-5/-----------6-5------6-5----5h7------
-----------------------------------------------------5~------5~----------
                 why would you wanna hurt me? oh
                 
------------------------------|----------------
------------------------------|----------------
-7-7-7/-----------------------|----5--7--------
-7-7-7/-----------------------|-7--5--7--5-----
-5-5-5/-----------------------|-7--3--5--5-----
------------------------------|-5--------3-----
       so frightened... 

during "chorus" mike plays this (wah)    after chorus fill
--5-5-5--x-x-x--------------         -------------------------------
--5-5-5--x-x-x--------------         ---10-10-10-8---10-10-10-8-----
---------x-x-x--------------         --------------9------------9-7-
----------------------------         -------------------------------
----------------------------         -------------------------------
----------------------------         ------------------------------- 

beginning of solo
----------------18b-18-15h18p15------
--18b-18b-18-15-----------------18p15
-------------------------------------

learn the parts and listen to the song and timing

===========ANIMAL.TAB

From Pearl Jam's recording "Vs."


    ______  ===___   ________  ==========
    |    |  | |  |   | |    |  |  |  |  |
e:-----------------------------------------|
B:-----------------------------------------|
G:------------------------------------PO---|
D:-----------------------------7-----(^^)--|
A:--------------------------------6--5--0--|
E:--5----5----5--5-----5----5--------------|

  This is how the main riff goes.  PO is a pull-off, and the rhythm is
  very weakly shown above the bar.  As far as the second part of the
  verse goes, just hit a D Chord a couple of times like so:

e:-----------|
B:-----7-----|
G:-----7-----|
D:-----7-----|
A:-----5-----|
E:-----------|


And then for the chorus.  Each one of these chords is a measure, and you can
strum them at will.  Listen to the record for the correct feel.

 CHORUS
 ======

e:--5--------|--8--------|--10-------|--3--------|
B:--5--------|--8--------|--10-------|--3--------|
G:--6--------|--9--------|--11-------|--4--------|
D:--7--------|--7--------|--10-------|--5--------|
A:--7--------|--7--------|--10-------|--5--------|
E:--5--------|--5--------|--8--------|--3--------|Here's the outro lead guitar track:

    ________   ________   ________   _______
    | | |  |   | |  | |   |  | | |   | | | |
e:--x-x-17-x---x-17-x-x---17-x-x-x---x-x-x-x--|
B:--x-x-17-x---x-17-x-x---17-x-x-x---x-x-x-x--|
G:--x-x-14-x---x-14-x-x---14-x-x-x---x-x-x-x--|
D:--------------------------------------------|
A:--------------------------------------------|
E:--------------------------------------------|


    ________   ________   ____===   ________
    | | |  |   | |  | |   |   | |   | | |  |
e:--x-x-17-x---x-17-x-x---17--x-x---x-x-20-20--|
B:--x-x-17-x---x-17-x-x---17--x-x---x-x-20-20--|
G:--x-x-14-x---x-14-x-x---14--x-x---x-x-17-17--|
D:---------------------------------------------|
A:---------------------------------------------|
E:---------------------------------------------|


As far as the solo goes.... it's in A with a lot of Wah...  I don't feel
 like taking the time to transcribe it.  Although I recommend you just
 kind of find the right key and play it.  That's usually the way I do with
 my band.  Just know what key you're in and sort of jam, remembering the
 overall thematic things.  Have fun with this.  If you need any help or
 any other songs transcribed, let me know...

                                                Brandon

bcorey@netcom.com
Related for Animal tab