Song name
# A B C D E F G H I J K L M N O P Q R S T U V W X Y Z

Pearl Jam - Daughter tab

#-------------------------------------------------------------------------#
#        Song Title: "Daughter" Solo by Mike McCready (Pearl Jam)         #
#-------------------------------------------------------------------------#

Thought I'd contribute... Here's the original solo. Nice and Short!

Standard Tuning EADGBe  Electric w/Full Distortion and Wah Pedal

Track Length: 3:55

Solo Length: 1:47 - 2:09  (22 seconds)

 G2
e|----------3-------3-------3-------3--------------------------------------|
B|-0--3=h5=---3=h5=---3=h5=---3=h5=---3=h5p3p0-x-3------------------3---3=-|
G|-0-----------------------------------------------4=p2p0-2p0---0---0h2-0=-|
D|------------------------------------------------------------2------------|
A|-------------------------------------------------------------------------|
E|-------------------------------------------------------------------------|

 G2
e|--------------------------------------------------------------3/10-|
B|-0-0--3---------3--------3----3----3---------3----3----3-3-3-------|
G|-0-0--2==b==4==-2==b=4==-2=b4-2=b4-2b4r2p0---0h=2-0----0-0-0-------|
D|-------------------------------------------2-----------------------|
A|-------------------------------------------------------------------|
E|-------------------------------------------------------------------|

 G2
e|-0------------------------------------------------|
B|-0------------------------------------------------|
G|---12h14p12-12------------12----------12----------|
D|---12-------12h14p12------12h14p12----12----------|
A|---------------------12---12-------12----14p12\10-|
E|--------------------------------------------------|

 G2
e|--------------------------------------------------|
B|--------------------------------------------------|
G|---12h14p12-12------------12----------12----------|
D|---12-------12h14p12------12h14p12----12----------|
A|-0-------------------12---12-------12----14p12\10-|
E|-0------------------------------------------------|

 G2
e|-------------------------------------------------------------------------|
B|---15======-15=======--15------15----------------------------------------|
G|-0----14b16----14b=16=====(14)====(14)r=14p12-14p12~~~~~~~~~~~(<24>)~~~~-|
D|-0-----------------------------------------------------------------------|
A|-0-----------------------------------------------------------------------|
E|-------------------------------------------------------------------------|

When a number appears in parentheses such as (14) the pitch of the note is
still at the 16th fret on that string when it is struck.

Tab Legend (this is all you need for this tab)

-   = string
#   = fret
x   = percussion (rake)
=   = hold note or bend
h   = hammer-on
p   = pull-off
b   = bend (to indicated fret)
r   = release bend (to indicated fret)
/   = slide up
\   = slide down
()  = strike bent or ringing note
(<>)= muted harmonic

Questions? Grievances? Comments?
unsupersmith@gmail.com
Tap to rate this tab
# A B C D E F G H I J K L M N O P Q R S T U V W X Y Z