Guitaretab - guitar tabs
Song name
# A B C D E F G H I J K L M N O P Q R S T U V W X Y Z

Pearl Jam - Footsteps tab

Band: Pearl Jam
Song: Footsteps
Album: Lost Dogs

Vocals:Eddy Vedder(also plays a little hermonica)
Guitar:Stone Gossard

Standard Tuning


This one is pretty easy, its not hard to play it and sing it at the same time
either...well if you can sing that is.  Good song for the girls.

Intro:                 <----->
e--------------|----------------------|----------------|--------------------|
B--------------|----------------------|----------------|--------------------|
G--------------|--------0----(0)------|-------(0)------|-------0----(0)-----|
D--------------|-------------(0)------|-----------(0)--|------------(0)-----|
A--------------|----------------------|----------------|--------------------|
E--(3)-(3)-(3)-|---1h3-----3-----1----|--1-------------|--1h3-----3-----1---|
                    <----->     <------->                  <----->     <----|

Main Riff:
---------------|-----0--0-0-0-x-x-|   4x then 7x with the open struming
---------------|-----0--0-0-0-x-x-|  at the end
-------0-------|-----0--0-0-0-x-x-|
--------(0)----|-----0--0-0-0-x-x-|
---------------|-----0--0-0-0-x-x-|
--1h3------3-1-|--1---------------|


Bridge:
  C  C9 C9    Dmajsus4 +9       C   C C     Dmajsus4 +9        C  C9 C9
--0--0--0--|--0-------0-0-0--|--0---0-0--|--0--------0-0-0--|--0--0--0-----|
--1--3--3--|--3---3-3-3-3-3--|--1---1-1--|--3--3-3-3-3-3-3--|--1--3--3-----|
--0--0--0--|--0---0-0-0-0-0--|--0---0-0--|--0--0-0-0-0-0-0--|--0--0--0-----|
--2--2--2--|--4---4-4-4-4-4--|--2---2-2--|--4--4-4-4-4-4-4--|--2--2--2-----|
--3--3--3--|--5-------5-5-5--|--3---3-3--|--5--------5-5-5--|--3--3--3-----|
-----------|-----------------|-----------|------------------|--------------|


  Dmajsus4 +9        E5             C
--0-------0-0-----|--0---0----|--0-----------|--------------|
--3--3-3--3-3-----|--0---0----|--1-----------|--------------|
--0--0-0--0-0-----|--x---x----|--0-----(0)---|------0-------|
--4--4-4--4-4-4-4-|--2---2----|--2-----------|--------------|
--5-------5-5-5-5-|--2---2----|--3-----------|--------------|
------------------|--0---0----|---------(3)--|--1h3----3-1--|


Main Riff:
---------------|-----0--0-0-0-x-x-|   4x then 3x with open struming
---------------|-----0--0-0-0-x-x-|
-------0-------|-----0--0-0-0-x-x-|
--------(0)----|-----0--0-0-0-x-x-|
---------------|-----0--0-0-0-x-x-|
--1h3------3-1-|--1---------------|


Bridge:
  C  C9 C9    Dmajsus4 +9       C   C C     Dmajsus4 +9        C  C9 C9
--0--0--0--|--0-------0-0-0--|--0---0-0--|--0--------0-0-0--|--0--0--0-----|
--1--3--3--|--3---3-3-3-3-3--|--1---1-1--|--3--3-3-3-3-3-3--|--1--3--3-----|
--0--0--0--|--0---0-0-0-0-0--|--0---0-0--|--0--0-0-0-0-0-0--|--0--0--0-----|
--2--2--2--|--4---4-4-4-4-4--|--2---2-2--|--4--4-4-4-4-4-4--|--2--2--2-----|
--3--3--3--|--5-------5-5-5--|--3---3-3--|--5--------5-5-5--|--3--3--3-----|
-----------|-----------------|-----------|------------------|--------------|


  Dmajsus4 +9        E5     (!!!)   C
--0-------0-0-----|--0---0--0-0--|--0-----------|----------------|
--3--3-3--3-3-----|--0---0--0-0--|--1-----------|----------------|
---0--0-0--0-0-----|--x---x--x-x--|--0-----(0)---|------0--------|
--4--4-4--4-4-4-4-|--2---2--2-2--|--2-----------|----------------|
--5-------5-5-5-5-|--2---2-------|--3-----------|----------------|
------------------|--0---0-------|---------(3)--|--1h3----3-1----|

  C     C   C C C C C
--0--|--0---0-0-0-0-0--|
--1--|--1---1-1-1-1-1--|
--0--|--0---0-0-0-0-0--|
--2--|--2---2-2-2-2-2--|
--3--|--3---3-3-3-3-3--|
-----|-----------------|

[ Tab from: http://www.guitaretab.com/p/pearl-jam/14285.html ]
Bridge:
  C  C9 C9    Dmajsus4 +9       C   C C     Dmajsus4 +9        C  C9 C9
--0--0--0--|--0-------0-0-0--|--0---0-0--|--0--------0-0-0--|--0--0--0-----|
--1--3--3--|--3---3-3-3-3-3--|--1---1-1--|--3--3-3-3-3-3-3--|--1--3--3-----|
--0--0--0--|--0---0-0-0-0-0--|--0---0-0--|--0--0-0-0-0-0-0--|--0--0--0-----|
--2--2--2--|--4---4-4-4-4-4--|--2---2-2--|--4--4-4-4-4-4-4--|--2--2--2-----|
--3--3--3--|--5-------5-5-5--|--3---3-3--|--5--------5-5-5--|--3--3--3-----|
-----------|-----------------|-----------|------------------|--------------|


  Dmajsus4 +9        E5     (!!!)   C
--0-------0-0-----|--0---0--0-0--|--0-----------|----------------|
--3--3-3--3-3-----|--0---0--0-0--|--1-----------|----------------|
---0--0-0--0-0-----|--x---x--x-x--|--0-----(0)---|------0--------|
--4--4-4--4-4-4-4-|--2---2--2-2--|--2-----------|----------------|
--5-------5-5-5-5-|--2---2-------|--3-----------|----------------|
------------------|--0---0-------|---------(3)--|--1h3----3-1----|

Chorus:
  E5 | | |              E5 | | |    G   G G G  A    A  A  A A A A
--0--0-0-0----|---------0--0-0-0-|--3---3-3-3--0-|--0--0--0-0-0-0--| x4
--0--0-0-0----|---------0--0-0-0-|--0---0-0-0--2-|--2--2--2-2-2-2--|
--x--x-x-x----|---------x--x-x-x-|--0---0-0-0--2-|--2--2--2-2-2-2--|
--2--2-2-2----|-----(2)-2--2-2-2-|--0---0-0-0--2-|--2--2--2-2-2-2--|
--2--2-2-2----|-----(2)-2--2-2-2-|--2---2-2-2--0-|--0--0--0-0-0-0--|
--0--0-0-0--2-|---2--------------|--3---3-3-3----|-----------------|
                                        4th time hold here^


Main Riff:
---------------|-----0--0-0-0-x-x-|   3x then 1x w/ the open struming
---------------|-----0--0-0-0-x-x-|
-------0-------|-----0--0-0-0-x-x-|
--------(0)----|-----0--0-0-0-x-x-|
---------------|-----0--0-0-0-x-x-|
--1h3------3-1-|--1---------------|


Bridge:
  C  C9 C9    Dmajsus4 +9       C   C C     Dmajsus4 +9        C  C9 C9
--0--0--0--|--0-------0-0-0--|--0---0-0--|--0--------0-0-0--|--0--0--0-----|
--1--3--3--|--3---3-3-3-3-3--|--1---1-1--|--3--3-3-3-3-3-3--|--1--3--3-----|
--0--0--0--|--0---0-0-0-0-0--|--0---0-0--|--0--0-0-0-0-0-0--|--0--0--0-----|
--2--2--2--|--4---4-4-4-4-4--|--2---2-2--|--4--4-4-4-4-4-4--|--2--2--2-----|
--3--3--3--|--5-------5-5-5--|--3---3-3--|--5--------5-5-5--|--3--3--3-----|
-----------|-----------------|-----------|------------------|--------------|


  Dmajsus4 +9        E5             C
--0-------0-0-----|--0---0----|--0-----------|--------------| 2x
--3--3-3--3-3-----|--0---0----|--1-----------|--------------|
--0--0-0--0-0-----|--x---x----|--0-----(0)---|------0-------|
--4--4-4--4-4-4-4-|--2---2----|--2-----------|--------------|
--5-------5-5-5-5-|--2---2----|--3-----------|--------------|
------------------|--0---0----|---------(3)--|--1h3----3-1--|

Chorus:
  E5 | | |              E5 | | |    G   G G G  A    A  A  A A A A
--0--0-0-0----|---------0--0-0-0-|--3---3-3-3--0-|--0--0--0-0-0-0--| x4
--0--0-0-0----|---------0--0-0-0-|--0---0-0-0--2-|--2--2--2-2-2-2--|
--x--x-x-x----|---------x--x-x-x-|--0---0-0-0--2-|--2--2--2-2-2-2--|
--2--2-2-2----|-----(2)-2--2-2-2-|--0---0-0-0--2-|--2--2--2-2-2-2--|
--2--2-2-2----|-----(2)-2--2-2-2-|--2---2-2-2--0-|--0--0--0-0-0-0--|
--0--0-0-0--2-|---2--------------|--3---3-3-3----|-----------------|
                                        4th time hold here^

Main Riff:(outro)
--------------------| 1x
--------------------|
--------------------|
-------0------------|
--------------------|
--1h3-----3---1-----|


Main Riff:
---------------|-----0--0-0-0-x-x-| 3x
---------------|-----0--0-0-0-x-x-|
-------0-------|-----0--0-0-0-x-x-|
--------(0)----|-----0--0-0-0-x-x-|
---------------|-----0--0-0-0-x-x-|
--1h3------3-1-|--1---------------|
Related for Footsteps tab
Footsteps chords by Pearl Jam