Song name
# A B C D E F G H I J K L M N O P Q R S T U V W X Y Z

Pearl Jam - Long Road tab

this is a really great song

-|-2------------------------2------------------------2--------|
-|-3------------------------3------------------------3--------|
-|-2------------------------2------------------------2--------|
-|-0--0--0-0-0--0--0--0-0-0-0--0--0-0-0--0--0--0-0-0-0--etc.--|
-|------------------------------------------------------------|
-|------------------------------------------------------------|
Verses  (1)


-|-3--3---3--3---3--3---3--3---2-----------2---3---2---0-0h2---------|
-|-3--3---3--3---3--3---3--3---3--3--------------------------3-----3-|
-|-0--0---0--0---0--0---0--0---2----2----------------2---------2---2-|
-|-0--0---0--0---0--0---0--0---0------0-0----0---0---------------0---|
-|-2--2---2--2---2--2---2--2-----------------------------------------|
-|-3--3---3--3---3--3---3--3-----------------------------------------|
Pre-Chorus   (2)

-|-0--0--2-------------------------------|
-|-0--2--3-(sustain run from pre chorus)-|
-|-0--2--2-------------------------------|
-|-2--2--0-------------------------------|
-|-2--0----------------------------------|
-|-0-------------------------------------|
Choruses   (3)

-|-3---3---2--------------------------|
-|-3---3---3-(sustain run)------------|
-|-0---0---2--------------------------|
-|-2---0---0--------------------------|
-|-3---2------------------------------|
-|-----3------------------------------|
Bridge  (And the winds are roaring and the skies are turning gray)  (4)


Song Anatomy
1
2
3
1
2
3
4
2
3
3
1
1
1
1.... fade

 if you have any questions contact me at gator_08_man@yahoo.com
Tap to rate this tab
# A B C D E F G H I J K L M N O P Q R S T U V W X Y Z