Song name
# A B C D E F G H I J K L M N O P Q R S T U V W X Y Z

Pearl Jam - Mfc tab

 #----------------------------------PLEASE NOTE--------------------------------#
#This file is the author's own work and represents their interpretation of the#
#song. You may only use this file for private study, scholarship, or research.#
#-----------------------------------------------------------------------------#
#-- File created with Instab - http://www.pconline.com/~smcarey/instab.html --#
#-----------------------------------------------------------------------------#

Author/Artist: Pearl Jam
Title: MFC
Transcribed by: Saverain
Email: saverain@yahoo.com

v strum down
^ strum up
b bend
m mute

Hint: To get the right sound if your using an electric guitar,
switch the switch on your guitar to the far left or to the lowest
pitch sound and use distortion. (I need to learn what that switch is
called).  Also strum the intro near the 20th fret.  Play Along w/ song.

I added the intro arranged for one guitar at the bottom.

-----------|-----------------------------|-------------|---|------------------|
-----------|-------3----3-3--3-----------|-------------|---|------------------|
-----------|---0------------------5-4-0--|-------------|---|------------------|
-----------|-5---5----5---------5--------|-------------|-0-|------------------|
-----------|-----------------------------|-------------|-5-|------------------|
-----------|-----------------------------|-------------|-3-|------------------|
  G1 intro>  v ^ v ^  v ^ v  ^  v ^ v ^   G2 strums this  chord during intro

-----------|------------------------------|--|--------------------------|-----|
-----------|--------3----3-3--3-----------|--|--------3----3-3--3----3--|-----|
-----------|-----------------------5-4-0--|--|---------------------0----|-----|
-----------|-5b--5b----5---------5--------|2x|-5b--5b----5--------------|-----|
-----------|------------------------------|--|--------------------------|-----|
-----------|------------------------------|--|--------------------------|-----|
             v   v

-----------|----------------------------|-------------------------------------|
-----------|----------------------------|-------------------------------------|
-----------|-12---7---5---7--5h7p5-5--2-|-------------------------------------|
-----------|----------------------------|-------------------------------------|
-----------|----------------------------|-------------------------------------|
-----------|----------------------------|-------------------------------------|
  G3 intro

-----------|-----1--1-------------------|--|-----1--1----1----1--|------------|
-----------|-----1--1-------------------|--|-----1----1----------|------------|
-----------|-----2----------------------|--|-----2----------2----|------------|
-----------|-----------5/7-7-7-7--5-5-0-|3x|---------------------|------------|
-----------|----------------------------|--|---------------------|------------|
-----------|----------------------------|--|---------------------|------------|
  verse G1       ^  ^m  in sync with bass        v  v ^  v  ^ vm

-----------|-------------------------|----|-----1---------------|-------------|
-----------|-----------3-3-3-3-------|----|-----1---------------|-------------|
-----------|--------2--2-2-2-2--2-2--|----|-----2---------------|-------------|
-----------|-3------3--0-0-0-0--0-0--|-3x-|-3-------------------|-------------|
-----------|-3------3-----------0-0--|----|-3-------------------|-------------|
-----------|-------------------------|----|---------------------|-------------|
  verse G2   v      vm v ^ v ^  ^ vm

-----------|----------------------|--|-----------------------------|----------|
-----------|----------------------|--|-----------------------------|----------|
-----------|-4--4-4-4-4-----------|--|-4--4-4-4--4-4-4-4-4-4-4-4-4-|----------|
-----------|-4--4-4-4-4-4---------|3x|-4--4-4-4--4-4-4-4-4-4-4-4-4-|----------|
-----------|------------4---------|--|-2--2-2-2--2-2-2-2-2-2-2-2-2-|----------|
-----------|------------2---------|--|-----------------------------|----------|
  Chorus G1  vm v ^ v ^ v              vm v ^ v  v ^ v ^ v ^ v ^ v

-----------|----------------------------|---------------------------|--|------|
-----------|----------------------------|-------3-------------------|--|------|
-----------|--------------------0-5-4-0-|-0--0--0-----------0-5-4-0-|--|------|
-----------|--------------------------5-|-5--5--------------------5-|2x|------|
-----------|----------------------------|---------------------------|--|------|
-----------|----------------------------|---------------------------|--|------|
  Interlude G1                           >                         <

-----------|----------------------------|---------------------------|--|------|
-----------|-------3-----3-3--3---------|-------3----3-3--3---------|--|------|
-----------|---0------------------------|---------------------------|--|------|
-----------|-5---5----5-----------------|-5b-5b----5----------------|2x|------|
-----------|----------------------------|---------------------------|--|------|
-----------|----------------------------|---------------------------|--|------|
  Interlude G2                           >                         <

-----------|----------------------------|--------|----------------------------|
-----------|-------3--------------------|--------|----------------------------|
-----------|-0--0--0------------0-5-4-0-|--------|----------------------------|
-----------|-5--5---------------0-0-0-0-|--------|----------------------------|
-----------|--------------------0-0-0-0-|--------|----------------------------|
-----------|----------------------------|--------|----------------------------|
        G1                                verse

-----------|----------------------------|--------|----------------------------|
-----------|-------3----3-3--3--3-------|--------|----------------------------|
-----------|----------------------------|--------|----------------------------|
-----------|-5b-5b----5-----------------|--------|----------------------------|
-----------|----------------------------|--------|----------------------------|
-----------|----------------------------|--------|----------------------------|
        G2                                verse

-----------|-------------------------------------------------|----------------|
-----------|-------------------------------------------------|----------------|
-----------|-7--5h7p5-4--2--5h7p5-4--2-5h7p5-4--2--4--5--9b--|----------------|
-----------|-------------------------------------------------|----------------|
-----------|-------------------------------------------------|----------------|
-----------|-------------------------------------------------|----------------|
  Interlude G3

-----------|---------------------------------------|--------------|-----------|
-----------|---------------------------------------|----5----5----|-----------|
-----------|---------------------------------------|-6----6----6--|-----------|
-----------|---------------------------------------|--------------|-----------|
-----------|---------------------------------------|--------------|-----------|
-----------|---------------------------------------|--------------|-----------|
            G1 plays chorus riff,G2 & G3 play this>        m    m

-----------|---------------------------------|---|----------------------------|
-----------|---------------------------------|---|----------------------------|
-----------|---------------------------------|---|----------------------------|
-----------|---------------------------------|-3-|----------------------------|
-----------|---------------------------------|-3-|----------------------------|
-----------|---------------------------------|-1-|----------------------------|
            Play interlude riff then end with>   <

--------------------\-|-------------------------------|-\---------------------|
--------------------/-|---------3----3-3--3-----------|-/---------------------|
--------------------\-|-0-0-0-0-0--0-0-0--0--0-5-4-0--|-\---------------------|
--------------------/-|-5-5-5-5-5--5-5-5--5--0-0-0-0--|-/---------------------|
--------------------\-|-x-x-x-x-x--x------x--x-x-x-x--|-\---------------------|
--------------------/-|-3-3-3-3----3---------5-5-5-5--|-/---------------------|
  Intro arranged for 1Guitar you can play this for interlude and outro also
Tap to rate this tab
# A B C D E F G H I J K L M N O P Q R S T U V W X Y Z