Song name
# A B C D E F G H I J K L M N O P Q R S T U V W X Y Z

Pearl Jam - Rearview Mirror tab

===========================================================
Artist: Pearl Jam
Song: Rearview Mirror
Album: Vs.
===========================================================
Guitar I   - Standard (E A D G B E) 
Guitar II  - Standard (E A D G B E)
Guitar III - Standard (E A D G B E)
===========================================================
Tabbed By: Adam
Email: adam_linnell@hotmail.com
===========================================================
Legend
 
b*  - Bend
r   - release from bend  
/\* - Slide up/down to number
h   - Hammer on
p   - Pull off
~   - Vibrato
===========================================================
Intro

 G1 - Clean
|----------------------------------------------------------------------------------------
|----------------------------------------------------------------------------------------
|----------------------------------------------------------------------------------------
|----------------------------------------------------------------------------------------
|---------5---5-7-----------5----5-7-----------5---5-7------------5---5-7----------------
|-----5-5---5-----0-0----5-5---5----0-0----5-5---5-----0-0----5-5---5-----0-0------------


Verse 1 

 G1 - Clean
|--------------------------  \
|--------------------------   \
|--------------------------    \
|--------------------------     \
|---------5---5-7----------      \
|-----5-5---5-----0-0------       \
|                                   x12
|G2 - Distorted                   /
|--------------------------      /
|--------------------------     /
|--------------------------    /
|--------------------------   / 
|---------5---5-7----------  /
|-----5-5---5-----0-0------ /


 G1 - Clean
|--------------------------  \
|--------------------------   \
|--------------------------    \
|--------------------------     \
|---------7---7-9----------      \
|-----7-7---7-----0-0------       \
|                                   x4
|G2 - Distorted                   /
|--------------------------      /
|--------------------------     /
|--------------------------    /
|--------------------------   / 
|---------7---7-9----------  /
|-----7-7---7-----0-0------ /


 G1 - Clean
|--------------------------  \
|--------------------------   \
|--------------------------    \
|--------------------------     \
|---------5---5-7----------      \
|-----5-5---5-----0-0------       \
|                                   x4
|G2 - Distorted                   /
|--------------------------      /
|--------------------------     /
|--------------------------    /
|--------------------------   / 
|---------5---5-7----------  /
|-----5-5---5-----0-0------ /
 

 G1 - Clean
|--------------------------  \
|--------------------------   \
|--------------------------    \
|--------------------------     \
|---------7---7-9----------      \
|-----7-7---7-----0-0------       \
|                                   x4
|G2 - Distorted                   /
|--------------------------      /
|--------------------------     /
|--------------------------    /
|--------------------------   / 
|---------7---7-9----------  /
|-----7-7---7-----0-0------ /


 G1 - Clean
|--------------------------  \
|--------------------------   \
|--------------------------    \
|--------------------------     \
|---------5---5-7----------      \
|-----5-5---5-----0-0------       \
|                                   x4
|G2 - Distorted                   /
|--------------------------      /
|--------------------------     /
|--------------------------    /
|--------------------------   / 
|---------5---5-7----------  /
|-----5-5---5-----0-0------ /

 Chorus

 G1 & G2 (G1 Clean, G2 Distorted) (number of times played not exact)
|-----------------------------------------------------------------------------------
|-----------------------------------------------------------------------------------
|----44444444444444-\-6-------------------------------------------------------------
|----44444444444444-\-6-555555555555-\-7-44444444-5555555555------------------------
|----22222222222222-\-4-555555555555-\-7-44444444-5555555555------------------------
|-----------------------333333333333-\-5-22222222-3333333333------------------------

|-----------------------------------------------------------------------------------
|-----------------------------------------------------------------------------------
|----44444444444444-\-6-------------------------------------------------------------
|----44444444444444-\-6-555555555555-\-7-4444444444-2-4-5555555555--7---------------
|----22222222222222-\-4-555555555555-\-7-4444444444-2-4-5555555555--7---------------
|-----------------------333333333333-\-5-2222222222-0-2-3333333333--5---------------
|
|G3 (play loosely and mute strings with fretting hand)
|-----------------------------------------------------------------------------------
|-----------------------------------------------------------------------------------
|-----------------------------------------------------------------------------------
|-------------------------------------------------------------------xx-7-xx-7-xx-7--
|-------------------------------------------------------------------xx-7-xx-7-xx-7--
|-------------------------------------------------------------------xx-5-xx-5-xx-5--

Verse 2

 G1 - Clean
|--------------------------  \
|--------------------------   \
|--------------------------    \
|--------------------------     \
|---------5---5-7----------      \
|-----5-5---5-----0-0------       \
|                                  \ 
|G2 - Distorted                     \
|--------------------------          \
|--------------------------           \
|--------------------------             x12
|--------------------------           /
|---------5---5-7----------          / 
|-----5-5---5-----0-0------         / 
|                                  /
|G3 - Distorted                   /
|--------------------------      /
|--------------------------     / 
|--------------------------    / 
|-----7--xx----------------   /
|-----7--xx----------------  /
|-----5--xx---------------- /

 G1 - Clean
|--------------------------  \
|--------------------------   \
|--------------------------    \
|--------------------------     \
|---------7---7-9----------      \
|-----7-7---7-----0-0------       \
|                                  \ 
|G2 - Distorted                     \
|--------------------------          \
|--------------------------           \
|--------------------------             x4
|--------------------------           /
|---------7---7-9----------          / 
|-----7-7---7-----0-0------         / 
|                                  /
|G3 - Distorted                   /
|--------------------------      /
|--------------------------     / 
|--------------------------    / 
|-----9--xx----------------   /
|-----9--xx----------------  /
|-----7--xx---------------- /

 G1 - Clean
|--------------------------  \
|--------------------------   \
|--------------------------    \
|--------------------------     \
|---------5---5-7----------      \
|-----5-5---5-----0-0------       \
|                                  \ 
|G2 - Distorted                     \
|--------------------------          \
|--------------------------           \
|--------------------------             x4
|--------------------------           /
|---------5---5-7----------          / 
|-----5-5---5-----0-0------         / 
|                                  /
|G3 - Distorted                   /
|--------------------------      /
|--------------------------     / 
|--------------------------    / 
|-----7--xx----------------   /
|-----7--xx----------------  /
|-----5--xx---------------- /

Chorus

G1 & G2 (G1 Clean, G2 Distorted) (number of times played not exact)
|-----------------------------------------------------------------------------------
|-----------------------------------------------------------------------------------
|----44444444444444-\-6-------------------------------------------------------------
|----44444444444444-\-6-555555555555-\-7-4444444444-2-4-5555555555------------------
|----22222222222222-\-4-555555555555-\-7-4444444444-2-4-5555555555------------------
|-----------------------333333333333-\-5-2222222222-0-2-3333333333------------------

|-----------------------------------------------------------------------------------
|-----------------------------------------------------------------------------------
|----44444444444444-\-6-------------------------------------------------------------
|----44444444444444-\-6-555555555555-\-7-4444444444-2-4-5555555555-----------7------
|----22222222222222-\-4-555555555555-\-7-4444444444-2-4-5555555555-----------7------
|-----------------------333333333333-\-5-2222222222-0-2-3333333333-----------5------
|
|G3 - Distorted
|--------12-14--------12-14---------12-14-------------------------------------------
|----12---------12--12--------12--12--------12-12-14-14b15--12-14b15r14/0-----------
|-----------------------------------------------------------------------------------
|-----------------------------------------------------------------------------------
|-----------------------------------------------------------------------------------
|-----------------------------------------------------------------------------------

Bridge

Outro - 2.43

 (number of times played not exact)
 G1 & G2 both play these chords until the end of the song.
|-----------------------------------------------------------------------------------
|-----------------------------------------------------------------------------------
|-----------------------------------------------------------------------------------
|----99999999999999--7777777777777--------------------------------------------------
|----99999999999999--7777777777777--------------------------------------------------
|----77777777777777--5555555555555--------------------------------------------------

 G3 - plays this starting at 3.08
|--------12-14---------12-14---------12-14------------------------------------------\
|-----12--------12--12--------12--12---------12-12-14-14b15r--14-12-14-14b15r14~---- \
|-----------------------------------------------------------------------------------  \ x2
|-----------------------------------------------------------------------------------  / 
|----------------------------------------------------------------------------------- /
|-----------------------------------------------------------------------------------/

|-14b16r--14b16r--14b16---14b16r-----19b21r--19b21r--19b21r--19b21r--19b21r--19b21r-
|-----------------------------------------------------------------------------------
|-----------------------------------------------------------------------------------
|-----------------------------------------------------------------------------------
|-----------------------------------------------------------------------------------
|-----------------------------------------------------------------------------------
 
(4.05) Guitar 3 is hard to hear at this part so just mess around with it. 

That's it. Enjoy :)
Tap to rate this tab
# A B C D E F G H I J K L M N O P Q R S T U V W X Y Z