Song name
# A B C D E F G H I J K L M N O P Q R S T U V W X Y Z

Pearl Jam - Smile tab

===========================================================
Artist: Pearl Jam
Song: Smile
Album: No Code
===========================================================
Tabbed By: Adam
Email: adam_linnell@hotmail.com
===========================================================
Guitar I   - Standard (E A D G B E) 
Guitar II  - Standard (E A D G B E)
===========================================================
Legend
 
b*  - Bend
r   - release from bend  
/\* - Slide up/down to number
h   - Hammer on
p   - Pull off
~   - Vibrato
===========================================================
Intro

 G1 - Distorted
|--------------------------------------\
|-------------------------------------- \
|--------------------------------------  \
|-----2-22--7-77--9-99--7-77-----------   \
|-----2-22--7-77--9-99--7-77-----------    \
|-----0-00--5-55--7-77--5-55-----------     \
|                                            \ x2
|G2 - Distorted                              /
|--------------------------------------     /
|-----------------------------15~~-----    /
|------------7~~--------14h16----------   /
|--------7h9---------------------------  /
|-------------------------------------- /
|--------------------------------------/


Verse 1 ("don't it make you smile?")

 G1 - Distorted (Guitar 1 plays this while the harmonica plays, and into the first verse.)

|--------------------------------------\
|-------------------------------------- \ 
|--------------------------------------  \ x12 
|-----2-22--7-77--9-99--7-77-----------  /   
|-----2-22--7-77--9-99--7-77----------- /    
|-----0-00--5-55--7-77--5-55-----------/

Chorus - 1.26

 G1 - Distorted
|--------------------------------------\
|-------------------------------------- \
|--------------------------------------  \ x4
|-----5-5---7-7--9-9--5-5--------------  /
|-----5-5---7-7--9-9--5-5-------------- / 
|-----3-3---5-5--7-7--3-3--------------/

Bridge - 1.51

 G1 - Distorted

|--------------------------------------\
|-------------------------------------- \ 
|--------------------------------------  \  
|-----2-22--7-77--9-99--7-77-----------   \   
|-----2-22--7-77--9-99--7-77-----------    \ 
|-----0-00--5-55--7-77--5-55-----------     \
|                                            \ x2
|G2 - Distorted     |w/delay|                /
|--------------------------------------     / 
|----5-5-5-55-5-5-5--5/15--------------    /  
|--------------------------------------   /
|--------------------------------------  / 
|-------------------------------------- / 
|--------------------------------------/

 G1 - Distorted
|--------------------------------------\
|-------------------------------------- \ 
|--------------------------------------  \ 
|-----2-22--7-77--9-99--7-77-----------   \ 
|-----2-22--7-77--9-99--7-77-----------    \  
|-----0-00--5-55--7-77--5-55-----------     \ 
|                                            \ x2
|G2 - Distorted                              /
|--------------------------------------     /
|--------------------------------------    /  
|-----------7-9-7~------7-9~~----------   /
|-------7h9---------7h9----------------  / 
|-------------------------------------- / 
|--------------------------------------/


 G1 - Distorted
|--------------------------------------\
|-------------------------------------- \ 
|--------------------------------------  \ x2 
|-----2-22--7-77--9-99--7-77-----------  /  
|-----2-22--7-77--9-99--7-77----------- /  
|-----0-00--5-55--7-77--5-55-----------/
|
| G2 - Distorted                              
|-------------------------------------------------------    
|-----17-15~~----17-15~\0-----------17-15~\0------------
|-------------------------------7~-----------------7~---
|---------------------------7h9----------------7h9------
|-------------------------------------------------------
|-------------------------------------------------------

Chorus - 2:28

 G1 - Distorted
|--------------------------------------\
|-------------------------------------- \
|--------------------------------------  \ x4
|-----5-5---7-7--9-9--5-5--------------  /
|-----5-5---7-7--9-9--5-5-------------- / 
|-----3-3---5-5--7-7--3-3--------------/

Outro - (repeat until end of song)

 G1 - Distorted (play twice before G2 comes in)
|--------------------------------------
|--------------------------------------  
|--------------------------------------   
|-----2-22--7-77--9-99--7-77-----------    
|-----2-22--7-77--9-99--7-77-----------  
|-----0-00--5-55--7-77--5-55-----------
|
|G2 - Distorted
|-------------------------------------------
|-------------------------------------------
|-------------------------------------------
|-------------------------------------------
|-------5-7-5~------5-7~------5-7-5------7~-
|---5h7---------5h7-------5h7--------5h7----


Cool. That's it. Enjoy.
Tap to rate this tab
# A B C D E F G H I J K L M N O P Q R S T U V W X Y Z