Song name
# A B C D E F G H I J K L M N O P Q R S T U V W X Y Z

Pearl Jam - Sonic Reducer tab

Author/Artist: Pearl Jam
Title: Sonic Reducer
Album: 1992 X´mas Single.
Transcribed by: Thiago Oliveira da Costa
Email: MikeMcCready@hotmail.com


Intro
|---------------------------------------------------------------------
|---------------------------------------------------------------------
|---------------------------------------------------------------------
|-11---9--------------------------------------------------------------
|-11---9--------------------------------------------------------------
|--9---7--------------------------------------------------------------

Verse (Palm Muted i guess)
|---------------------------------------------------------------------
|---------------------------------------------------------------------
|---------------------------------------------------------------------
|-11-11-11-11-11-11-11--6-6-6-6-6-6-6--7-7-7-7-7-7-7--4-4-4-4-4-4-4---
|-11-11-11-11-11-11-11--6-6-6-6-6-6-6--7-7-7-7-7-7-7--4-4-4-4-4-4-4---
|--9--9--9--9--9--9--9--4-4-4-4-4-4-4--5-5-5-5-5-5-5--2-2-2-2-2-2-2---

Pre Chorus: 
|---------------------------------------------------------------------
|---------------------------------------------------------------------
|---------------------------------------------------------------------
|-2-2-2-2-2-2-2---4-4-4-4-4-4---7-7-7-7-7-7---9-9-9-9-9-9-------------
|-2-2-2-2-2-2-2---4-4-4-4-4-4---7-7-7-7-7-7---9-9-9-9-9-9-------------
|-0-0-0-0-0-0-0---2-2-2-2-2-2---5-5-5-5-5-5---7-7-7-7-7-7-------------

Chorus: 
|---------------------------------------------------------------------
|---------------------------------------------------------------------
|---------------------------------------------------------------------
|-9-9-9-11-11-11--9-9-9-11-11-11--7-7-7-7-7---9-9-9-9-9---------------
|-9-9-9-11-11-11--9-9-9-11-11-11--7-7-7-7-7---9-9-9-9-9---------------
|-7-7-7--9--9--9--7-7-7--9--9--9--5-5-5-5-5---7-7-7-7-7---------------

Solo Guitar Two Maybe Later.
Guitar One
|---------------------------------------------------------------------
|---------------------------------------------------------------------
|---------------------------------------------------------------------
|-11-11-11-11-11-11-11--6-6-6-6-6-6-6--7-7-7-7-7-7-7--4-4-4-4-4-4-4---
|-11-11-11-11-11-11-11--6-6-6-6-6-6-6--7-7-7-7-7-7-7--4-4-4-4-4-4-4---
|--9--9--9--9--9--9--9--4-4-4-4-4-4-4--5-5-5-5-5-5-5--2-2-2-2-2-2-2---

Interlude Both Guitars Palm Muted.
|---------------------------------------------------------------------
|---------------------------------------------------------------------
|---------------------------------------------------------------------
|-11-11-11-11-11-11-11--6-6-6-6-6-6-6--7-7-7-7-7-7-7--4-4-4-4-4-4-4---
|-11-11-11-11-11-11-11--6-6-6-6-6-6-6--7-7-7-7-7-7-7--4-4-4-4-4-4-4---
|--9--9--9--9--9--9--9--4-4-4-4-4-4-4--5-5-5-5-5-5-5--2-2-2-2-2-2-2---

Pre Chorus: 
|---------------------------------------------------------------------
|---------------------------------------------------------------------
|---------------------------------------------------------------------
|-2-2-2-2-2-2-2---4-4-4-4-4-4---7-7-7-7-7-7---9-9-9-9-9-9-------------
|-2-2-2-2-2-2-2---4-4-4-4-4-4---7-7-7-7-7-7---9-9-9-9-9-9-------------
|-0-0-0-0-0-0-0---2-2-2-2-2-2---5-5-5-5-5-5---7-7-7-7-7-7-------------

Chorus: 
|---------------------------------------------------------------------
|---------------------------------------------------------------------
|---------------------------------------------------------------------
|-9-9-9-11-11-11--9-9-9-11-11-11--7-7-7-7-7---9-9-9-9-9---------------
|-9-9-9-11-11-11--9-9-9-11-11-11--7-7-7-7-7---9-9-9-9-9---------------
|-7-7-7--9--9--9--7-7-7--9--9--9--5-5-5-5-5---7-7-7-7-7---------------

2nd Solo Guitar Two Maybe Later.
Guitar One.
|---------------------------------------------------------------------
|---------------------------------------------------------------------
|---------------------------------------------------------------------
|-9-9-9-11-11-11--9-9-9-11-11-11--7-7-7-7-7---9-9-9-9-9---------------
|-9-9-9-11-11-11--9-9-9-11-11-11--7-7-7-7-7---9-9-9-9-9---------------
|-7-7-7--9--9--9--7-7-7--9--9--9--5-5-5-5-5---7-7-7-7-7---------------

crazy ass solo here...???
Tap to rate this tab
 
# A B C D E F G H I J K L M N O P Q R S T U V W X Y Z