Guitaretab - guitar tabs
Song name
# A B C D E F G H I J K L M N O P Q R S T U V W X Y Z

Pearl Jam - Blood tab

Blood by Pearl Jam
from Vs.

INTRO                       x4
e----------------------------|
B------------0------------0--|
G--5-3-0-5-3-0--5-3-0-5-3-0--|
D--5-3-0-5-3-0--5-3-0-5-3-0--|
A--3-1---3-1----3-1---3-1----|
E----------------------------|

VERSE                          x3
e-------------------------------|
B--x-x-x-x-8-8-x-x-x-x-5-5-5-5--|
G--x-x-x-x-7-7-x-x-x-x-5-5-5-5--|
D-------------------------------|
A-------------------------------|
E-------------------------------|
[ Tab from: http://www.guitaretab.com/p/pearl-jam/185069.html ]
e----------------------------|
B------------0------------0--| play this and above riff 
G--5-3-0-5-3-0--5-3-0-5-3-0--| twice for the verse
D--5-3-0-5-3-0--5-3-0-5-3-0--|
A--3-1---3-1----3-1---3-1----|
E----------------------------|

CHORUS                                                x2
e------------------------------------------------------|
B------------0------------0------------0------------0--|
G--5-3-0-5-3-0--5-3-0-5-3-0--5-3-0-5-3-0--5-3-0-5-3-0--|
D--5-3-0-5-3-0--5-3-0-5-3-0--5-3-0-5-3-0--5-3-0-5-3-0--|
A--3-1---3-1----3-1---3-1----3-1---3-1----3-1---3-1----|
E------------------------------------------------------|

Any correctons please comment
Thanks

Related for Blood tab
Blood chords by Pearl Jam