Song name
# A B C D E F G H I J K L M N O P Q R S T U V W X Y Z

Pearl Jam - Porch chords

Highlighted       Show chord diagrams
Artist: Pearl Jam
Song: Porch
Album: Ten & MTV Unplugged
Chords
Standard Tuning

*Chords*

Asus2      Cmaj

-0----------0---------|
-0----------1---------|
-2----------0---------|
-2----------2---------|
-0----------3---------|
-0----------0---------|

Gmaj     A11     A#6    Cadd9

-3--------5-------6-------8----|
-3--------5-------6-------8----|
-0--------0-------0-------0----|
-0--------0-------0-------0----|
-2--------4-------5-------7----|
-3--------5-------6-------8----|

Fsus2   D#sus2/A#     Cmaj/G      C#m7/G#

-7---------5------------x-----------x-----------------|
-7---------5------------x-----------x-----------------|
-9---------7------------4-----------5-----------------|
-9---------7------------4-----------5-----------------|
-7---------5------------2-----------3-----------------|
-7---------5------------2-----------3-----------------|

Amaj

-5--------------|
-5--------------|
-6--------------|
-7--------------|
-7--------------|
-5--------------|


*Chords and Lyrics*

Asus 2                 Cmaj
What the fuck is this world
Running to, you didn't
Leave a message, at least I
Coulda' learned your voice one last time
Daily minefield, this could
Be my time, 'bout you?
Would you hit me? (2x)


Gmaj  A11   A#6   Cadd9
Oh... oh... oh......oh................


Asus 2               Cmaj
All the bills go by, and
Initiatives are taken up
By the middle, there ain't gonna be any middle any more
And the cross I'm bearing home
Ain't indicative of my place
Left the porch (2x)


Gmaj  A11   A#6   Cadd9
Oh....oh.....oh....oh
Hear my name, take a good look
This could be the day
Hold my hand, walk beside me
I just need to say...


*Musical Jam*
Fsus2   D#sus2/A#     Cmaj/G      C#m7/G#

Amaj
Hey.........

Gmaj  A11   A#6   Cadd9
Hear my name, take a good look
This could be the day
Hold my hand, lie beside me
I just need to say
I could not take a-just one day
I know when I would not ever touch you
Hold you.....feel you.....in my arms.....never again......
Yeah............(12x)


End
Tap to rate this tab
# A B C D E F G H I J K L M N O P Q R S T U V W X Y Z