Song name
# A B C D E F G H I J K L M N O P Q R S T U V W X Y Z

Pearl Jam - Force Of Nature tab

-------------------------------------------------------------------------------
                       FORCE OF NATURE SOLO - Pearl Jam
-------------------------------------------------------------------------------
Tabbed by: Andrew Akker
Email: aakker@gatech.edu

Tuning: Standard


e|--------------------------------------------------------------|
B|-10^-8-7--------10^-8-7----------10^-8-7----------------------|
G|---------7-9------------7----------------7-9-9^---7-----7-9-7-|
D|------------------------------------------------9-------------|
A|--------------------------------------------------------------|
E|--------------------------------------------------------------|

e|-------------------------------------12---------------------12---------------------12-----------|
B|-15-15-15-15-15-15-12-15-15-15-12-15---15-12-15-15-15-12-15---15-12-15-15-15-12-15---15-12-15-15|
G|------------------------------------------------------------------------------------------------|
D|------------------------------------------------------------------------------------------------|
A|------------------------------------------------------------------------------------------------|
E|------------------------------------------------------------------------------------------------|

e|--------------------------------------------------------------10-12^---10----10~~~--|
B|--------------------------------------------------------10-12-------------12--------|
G|-15-12---------------14-12\11-9--------9h11p9------9-11-----------------------------|
D|--------14p12----12------------12p9h12--------9-12----------------------------------|
A|--------------14--------------------------------------------------------------------|
E|------------------------------------------------------------------------------------|

| ^  full bend up
| /  slide up
| \  slide down
| h  hammer-on
| p  pull-off
| ~  vibrato
| +  harmonic
| x  Mute note
===============================================================================
Tap to rate this tab
# A B C D E F G H I J K L M N O P Q R S T U V W X Y Z