Song name
# A B C D E F G H I J K L M N O P Q R S T U V W X Y Z

Pearl Jam - Just Breathe tab

Ok i know loads of people say "this is my first tab" and its annoying but this actually 
my first tab.

i was looking at someone elses tab and it didnt sound quite right so i changed it a bit 
came up with this

Standard EADGbe tuning

       C maj/E
e|-------------3-----------3-----------3---5-----------------0-----------3-|
b|-1-------1-----------1-----------1-------------1-------1-----------1-----|
G|-----0-----------0-----------0---------------------0-----------0---------|
D|---2---2---2---2---2---2---2---2---2---2---0-----2---2---2---2---2---2---|
A|-3---------------------------------------------0-------------------------|
E|-------------------------------------------------------------------------|

... no pause continue after bit above
e|-----------3---1----------------|
b|-------1------------------------|
G|---0----------------------------|
D|-2---2---2---2------------------|
A|--------------------------------|
E|--------------------------------|

please leave comments i will update tab when ive worked out the rest
Tap to rate this tab
 
# A B C D E F G H I J K L M N O P Q R S T U V W X Y Z