Guitaretab - guitar tabs
Song name
# A B C D E F G H I J K L M N O P Q R S T U V W X Y Z
Home / P / Pearl Jam / Goat tab

Pearl Jam - Goat tab

-------------------------------------------------------------------------------
                               GOAT  Pearl Jam
-------------------------------------------------------------------------------

Album: Mookie Blaylock (demo)
Tabbed by: brian_s
Email: branimir.sremec@kc.t-com.hr



VERSE/CHORUS:
e----------------------------------|
B----------------------------------|
G----------------------------------|
D---3---3-3--3-3---4-4-4-4-4-4-4---|
A---3---3-3--3-3---4-4-4-4-4-4-4---|
E---1---1-1--1-1---2-2-2-2-2-2-2---|

SOLO:
e---16-16-16-16-16-16-13-----16-13------11------|
B----------------------------------13-----------|
G------------------------------------------10---|
D-----------------------------------------------|
A-----------------------------------------------|
E-----------------------------------------------|

e---16-16-16-16-16-16-16-----16-15--------------------------------------|
B-----------------------------------16-15----17b--16-15---16-15---------|
G---------------------------------------------------------------15-17---|
D-----------------------------------------------------------------------|
A-----------------------------------------------------------------------|
E-----------------------------------------------------------------------|
[ Tab from: http://www.guitaretab.com/p/pearl-jam/21522.html ]
e-----------13----------13-------------13----------13---|
B---13---16-------13-16--------13---16-------13-16------|
G-------------------------------------------------------|
D-------------------------------------------------------|
A-------------------------------------------------------|
E-------------------------------------------------------|

e---16-13----13-----16-13-----------13------------13---|
B---------16-----13-------16--13-16---------13-16------|
G------------------------------------------------------|
D------------------------------------------------------|
A------------------------------------------------------|
E------------------------------------------------------|



CHORUS:
She was an evil little goat, goat, goat...
She was an evil little goat, goat, goat...
She was an evil little goat, goat, goat...
She was an evil little goat, goat, goat...
She was an evil little...

VERSE:
He brought her back from Scandinavia...
She wore the mountains and the clothes were new...
She knew the mountains...a little dangerous...
She is the one...

CHORUS:
And she was an evil goat, goat, goat...
She was an evil little goat, goat, goat...
She was an evil little goat, goat, goat...
She was an evil little goat, goat, goat...
Baaaa...
Baaaa...
Baaaa...
Baaaa...
Baaaa...
She was an evil little goat, goat, goat...
She was an evil little goat, goat, goat...
She was an evil little goat, goat, goat...
She was an evil little goat, goat, goat...
She was an evil little goat, goat, goat...

SOLO:
Related for Goat tab