Song name
# A B C D E F G H I J K L M N O P Q R S T U V W X Y Z

Pearl Jam - Running Out Of Time tab

-----------------------------------------------------------------
Running Out Of Time - MXPX
-----------------------------------------------------------------
Tabbed by: Bair
Email: bair_morritt@hotmail.com
Tuning: Standard

Intro/ Main Riff:
e|---------------------------------------------------------------|
B|---------------------------------------------------------------|
G|---------------------------------------------------------------|
D|--2-6-4-1-2-6-4-1----------------------------------------------|
A|---------------------------------------------------------------|
E|---------------------------------------------------------------|

Verse:
e|-------------------------------------------------------|
B|-------------------------------------------------------|
G|--9999-9999---------------9999-9999--------------------|
D|--9999-9999--77777777-99--9999-9999--77777777-99-------|
A|--7777-6666--77777777-99--7777-6666--77777777-99-------|
E|-------------55555555-77-------------55555555-77-------|
"You heard me softly singing...."

Pre-Chorus:
e|---------------------------------------------------------------|
B|---------------------------------------------------------------|
G|--666666--222222----------444444--666666--222222---------------|
D|--666666--222222--222222--444444--666666--222222--2222222222---|
A|--444444--000000--222222--222222--444444--000000--2222222222---|
E|------------------000000--------------------------0000000000---|
"Not a whole lot matters...."

Chorus:
e|---------------------------------------------------------------|
B|---------------------------------------------------------------|
G|--66666666--44444444-------------------------------------------|
D|--66666666--44444444--77777777--22222222--(X2)------------------|
A|--44444444--22222222--77777777--22222222-----------------------|
E|----------------------55555555--00000000-----------------------|
"Running outta time running outta time....

Bridge:
e|---------------------------------------------------------------|
B|---------------------------------------------------------------|
G|-6666--------9999----------------------------------------------|
D|-6666--7777--9999--9999--777777--9999-99-----------------------|
A|-4444--7777--7777--9999--777777--9999-99-----------------------|
E|-------5555--------7777--555555--7777-77-----------------------|
"When time stands still...."
Tap to rate this tab
# A B C D E F G H I J K L M N O P Q R S T U V W X Y Z