Pearl Jam - Rearviewmirror tab

-------------------------------------------------------------------------------
			     SONG NAME - Band Name
-------------------------------------------------------------------------------
Tabbed by: Milo Larkin
Email: milo.larkin@hotmail.co.uk

Tuning: Standard, EADGBe

This is a fairly simple song, lots of nice riffs. It sounds all correct but hard 
to work out as there are lots of guitars playing (3/4 at a time!)

If you used this tab, please comment or rate it, greatly appreciated.

Verse

e|---------------------------------------------------------------------------|
B|---------------------------------------------------------------------------|
G|---------------------------------------------------------------------------|
D|---------------------------------------------------------------------------|
A|----0--0--5--0--5--7---------------------------7-----7--9------------------|
E|--0-------------------0--0---------------7--7-----7--------7--7------------|

Chorus

e|---------------------------------------------------------------------------|
B|---------------------------------------------------------------------------|
G|---------------------------------------------------------------------------|
D|--------9------------------5-------------4---------------5--55555----------|
A|--------9----9/11----------5----5/7------4---2/4---------5--55555----------|
E|--7--7--7----7/9-----3--3--3----3/5--2-2-2---0/2---3--3--3--33333----------|

Pre-Verse/Bridge

e|---------------------------------------------------------------------------|One guitar carries
B|---------------------------------------------------------------------------| on playing this
G|---------------------------------------------------------------------------| whilst
D|--7-7---x-x-x--x-x---------------------------------------------------------|the other starts
A|--7-7---x-x-x--x-x---------------------------------------------------------| the verse riff
E|--5-5---x-x-x--x-x---------------------------------------------------------| again

Little riff played during 2nd chorus:

e|------12--14~--------------------------------------------------------------|
B|--12~----------------------------------------------------------------------|
G|---------------------------------------------------------------------------|
D|---------------------------------------------------------------------------|
A|---------------------------------------------------------------------------|
E|---------------------------------------------------------------------------|

e|---------------------------------------------------------------------------|
B|-12--12--14b15br14---------------------------------------------------------|
G|---------------------------------------------------------------------------|
D|---------------------------------------------------------------------------|
A|---------------------------------------------------------------------------|
E|---------------------------------------------------------------------------|

e|-----    ------------------------------------------------------------------|
B|-----    ------------------------------------------------------------------|
G|-----    ------------------------------------------------------------------|
D|-7--- or --14~----/19~-----------------------------------------------------|
A|-7---    ------------------------------------------------------------------|
E|-5---    ------------------------------------------------------------------|

Bridge is a few long notes from the A minor pentatonic and some muted notes.
One guitar does this the whole way through

e|---------------------------------------------------------------------------|
B|---------------------------------------------------------------------------|
G|---------------------------------------------------------------------------|
D|--7-7-7-7-7-7-7-7-7-7-7-7-7-7-7-7-7-7--------------------------------------|
A|---------------------------------------------------------------------------|
E|---------------------------------------------------------------------------|

Post bridge verse/pre-outro is justt a slight variant on verse:

e|---------------------------------------------------------------------------|
B|---------------------------------------------------------------------------|
G|---------------------------------------------------------------------------|
D|---------------------------------------------------------------------------|
A|--------7--9---------7--9--------------------------------------------------|
E|--7--7---------7--7--------------------------------------------------------|

Plus another guitar is doing this power chord queitly

e|-----|
B|-----|
G|-----|
D|--7--|
A|--7--|
E|--5--|

Solo (want you, in my.... REARVIEWMIRROORRRRR)

(rhythm for solo:)


e|------------------------------|
B|------------------------------|
G|------------------------------|
D|--9-9-9-9-9-9---7-7-7-7-7-7---|
A|--9-9-9-9-9-9---7-7-7-7-7-7---|
E|--7-7-7-7-7-7---5-5-5-5-5-5---|

Solo riff:

e|----------12--14~~-----------12--14-------------12--14------------12--14---|
B|--12--12------------12~-12-------------12--12------------12~-12------------|
G|---------------------------------------------------------------------------|
D|---------------------------------------------------------------------------|
A|---------------------------------------------------------------------------|
E|---------------------------------------------------------------------------|

e|---------------------------------------------------------------------------|
B|--12--14--14b15rb14--------12--14--14b15rb14-------------------------------|
G|---------------------------------------------------------------------------|
D|---------------------------------------------------------------------------|
A|---------------------------------------------------------------------------|
E|---------------------------------------------------------------------------|

e|----------12--14~----------12--14------------------------------------------|
B|--12--12-----------12~-12--------------------------------------------------|
G|---------------------------------------------------------------------------|
D|---------------------------------------------------------------------------|
A|---------------------------------------------------------------------------|
E|---------------------------------------------------------------------------|

e|--14b15rb14--------12--14b15rb14---------|
B|-----------------------------------------|
G|-----------------------------------------|
D|-----------------------------------------|
A|-----------------------------------------|
E|-----------------------------------------|

e|--19b21rb19---|
B|--------------|
G|--------------|
D|--------------|
A|--------------|
E|--------------|

The solo is really easy, it's just a simple combination of all the above riffs put together.
Make sure you've got some nice distortoin on, use lots of vibrato and finish on the last bend.

Drop me an email if you have any corrections, or post them below.

************************************

| /   slide up
| \   slide down
| h   hammer-on
| p   pull-off
| ~   vibrato
| +   harmonic
| x   Mute note
| b   Bend
| pb  Pre-bend
| br  Bend release
| pbr Pre-bend release
| brb Bend release bend

************************************
Tap to rate this tab
 
# A B C D E F G H I J K L M N O P Q R S T U V W X Y Z