Song name
# A B C D E F G H I J K L M N O P Q R S T U V W X Y Z

Pearl Jam - Nothingman tab

Author/Artist: Pearl Jam
Title: Nothingman
Album: Vitalogy
Transcribed by Mike Mabie and Evan Cowan with help
from Chris Wilson and RyanB...
All Guitars capo 5th fret...all notes relative to capo
(0 represents capoed 5th fret)
Tune your B string up to a C (EADGCE)
(07/16/00)
G2 and both chorus parts are still incorrect...till a future update...

-|---------------------------------------------------------------|------------
-|-0---0--0---0-0--0---0-0--0---0-0--0---0-0--0---0-0---0--0-0-0-|------------
-|-0---0--0-0-0-0--0-0-0-2--2-2-2-0--0-0-0-2--2-2-2-0---0--0-0-0-|------------
-|-2---2----2---2----2---2----2---0----0---2----2---3---3----3---|------------
-|-3---------------------0--------2--------0--------3------------|------------
-|--------------------------------3-----------------1------------|------------
 G1 Intro                                                                     

-|---------------------------------------------------------------|------------
-|-0---0--0---0-0--0---0-0--0---0-0--0---0-0--0---0-0------0-0-0-|------------
-|-0---0--0-0-0-0--0-0-0-2--2-2-2-0--0-0-0-2--2-2-2-0------0-0-0-|------------
-|-2---2----2---2----2---2----2---0----0---2----2---3--------3---|------------
-|-3---------------------0--------2--------0--------3------------|------------
-|--------------------------------3-----------------1------------|------------
                                                                              

-|-----------------------------------------------------------|----------------
-|-0--0--0---0-0--0---0-0--0---0-0--0---0-0--0---0-0---0-0-0-|----------------
-|-0--0--0-0-0-0--0-0-0-2--2-2-2-0--0-0-0-2--2-2-2-0---0-0-0-|----------------
-|-2--2----2---2----2---2----2---0----0---2----2---3-----3---|----------------
-|-3--------------------0--------2--------0--------3---------|----------------
-|-------------------------------3-----------------1---------|----------------
 G1 Verse                                                 3x simile           

-|--------------------------------------------------------------------------|-
-|-0--0--0---0-0--0---0-0--0---0-0--0---0-0--0---0-0---0--0-0-0-0---0-0-0-0-|-
-|-0--0--0-0-0-0--0-0-0-2--2-2-2-0--0-0-0-2--2-2-2-0---0--0-0-0-0---0-0-0-2-|-
-|-2--2----2---2----2---2----2---0----0---2----2---3---3----3---3-----3---2-|-
-|-3--------------------0--------2--------0--------3---3--------3---------0-|-
-|-------------------------------3-----------------1---1--------1-----------|-
                                                                              

-|--------|----------------------------------------------------------------|--
-|-0---0--|-0------------0--------0--------0--------0--------0-------------|--
-|-2-2-2--|-0------------0--------2--------0--------2--------0-------------|--
-|---2----|-2------------2--------2--------0--------2--------3-------------|--
-|--------|-3---------------------0--------2--------0--------3-------------|--
-|--------|--------------------------------3-----------------1-------------|--
          G2 Verse                                              Trem Bar 4x   

-|----------------------------------------------------------------|-----------
-|-0------0---0-0-0--0---0-0-0--0--0---0-0---0---0-0-0--0--0-0-0--|-----------
-|-0------0---0-0-0--0---0-0-0--0--0-0-0-0---0---0-0-0--0--0-0-0--|-----------
-|-3------3-----3----3-----3----0----0---3---3-----3----3----3----|-----------
-|-3------3----------3----------2--------3---3----------3---------|-----------
-|-1------1----------1----------3--------1------------------------|-----------
 G1 Bridge                                                                    

-|----------------------------------------------------------------|-----------
-|-0----------------------------0--0---0-0------------------------|-----------
-|-0----------------------------0--0-0-0-0------------------------|-----------
-|-3----------------------------0----0---3------------------------|-----------
-|-3----------------------------2--------3------------------------|-----------
-|-1----------------------------3--------1------------------------|-----------
 G2 Bridge                                                                    

-|-------------------------------------------------|--------------------------
-|-0---0-0-0--0-----0---0-0-0--0---0-0-0--0--0---0-|--------------------------
-|-0---0-0-0--0-----0---0-0-0--0---0-0-0--0--0-0-0-|--------------------------
-|-2-----2----3-----3-----3----3-----3----0----0---|--------------------------
-|-2----------3-----3----------3----------2--------|--------------------------
-|-0----------1----------------1----------3--------|--------------------------
 G1                                                                           

-|-------------------------------------------------|--------------------------
-|-0---0-0-0--0----------------0----------0--------|--------------------------
-|-0---0-0-0--0----------------0----------0--------|--------------------------
-|-2-----2----3----------------3----------0--------|--------------------------
-|-2----------3----------------3----------2--------|--------------------------
-|-0----------1----------------1----------3--------|--------------------------
 G2                                                                           

-|-------------------------------------------------------------------|--------
-|-0-----0-0-0-0---0-0-0--0---0-0-0--0-----0---0---0---0---0---0---0-|--------
-|-0-----0-0-0-0---0-0-0--0---0-0-0--0-----0---0-0-0---0---0---0-0-0-|--------
-|-2-------2---2-----2----3-----3----0-----0-----0-----0---0-----0---|--------
-|-3-----------3----------3----------2-----2-----------2---2---------|--------
-|------------------------1----------3-----3-----------3---3---------|--------
 G1 Chorus                                                                    

-|---------------------------------------|--------------------------------|---
-|-0-----0-0-0-0---0-0-0--0---0-0-0--0---|-0---0---0-0---0---0-0---0---0--|---
-|-0-----0-0-0-0---0-0-0--0---0-0-0--0---|-0---0-0-0-0---0-0-0-0---0-0-0--|---
-|-2-------2---2-----2----3-----3----0---|-0-----0---0-----0---0-----0----|---
-|-3-----------3----------3----------2---|-2---------2---------2----------|---
-|------------------------1----------3---|-3---------3---------3----------|---
 G1                                       2nd time only                       

-|------------------------------------------------------------------------|---
-|-0-----------0----------0--*0-0*0--0------------------------------------|---
-|-0-----------0----------0---0-0-0--0------------------------------------|---
-|-2-----------2----------3----*3----0------------------------------------|---
-|-3-----------3----------3----------2------------------------------------|---
-|------------------------1----------3------------------------------------|---
 G2 Chorus              *not always played                       2x           

-|--------------------------------------------------------------------------|-
-|--------------------------------------------------------------------------|-
-|--------------------------------------------------------------------------|-
-|--------------------------------------------------------------------------|-
-|--------------------------------------------------------------------------|-
-|--------------------------------------------------------------------------|-
  G1 and G2 Repeat Verses, Bridge, and Chorus again                           

-|--------------------------------------------------------------|-------------
-|-0--0---0---0---0---0---0--0---0-0-0--0---0--0---0----0-------|-------------
-|-2--2---2-2-2---2---2-2-2--0---0-0-0--0---0--0-0-0----0-------|-------------
-|-2--2-----2-----2-----2----3-----3----0---0----0------0-------|-------------
-|-0--------------0----------3----------2---2-----------2-------|-------------
-|---------------------------1----------3---3-----------3-------|-------------
 G1 Interlude                                                                 

-|-------------------------------------------------------------------------|--
-|------------0--0-----------0----------0----------0---0-----------0-------|--
-|------------2--2-----------2----------0----------x---x-----------x-------|--
-|------------2--2-----------2----------3----------10--10----------10------|--
-|------------0--------------0----------3----------10--10----------10------|--
-|--------------------------------------1----------8-----------------------|--
 G2                                                                           

-|--------------------------------------------------------------------------|-
-|-0---0--0--0-0-0--0----0--0---0--0---0---0--0--0-0-0--0----0----0----0----|-
-|-0-0-0--0--0-0-0--2----2--2-2-2--2---2-2-2--0--0-0-0--0----0----0-0--0----|-
-|---0----3----3----2----2----2----2-----2----3----3----0----0------0-------|-
-|--------3---------0----0--------------------3---------2----2--------------|-
-|--------1-----------------------------------1---------3----3--------------|-
 G1                                                                           

-|--------------------------------------------------------------------------|-
-|--------0---------0----0---------0----------0---------0----0--------------|-
-|--------0---------2----2---------2----------0---------0----0--------------|-
-|--------3---------2----2---------2----------3---------0----0--------------|-
-|--------3---------0----0--------------------3---------2----2--------------|-
-|--------1-----------------------------------1---------3----3--------------|-
 G2                                                                           

-|--------------------------------------------------------------------------|-
-|-0----0---0---0--0---0--0----0---0-0-0----0---0-0-0---0---0-0-0---0----0--|-
-|-0----0-0-0---2--0-2-0--0----0---0-0-0----0---0-0-0---0---0-0-0---0----0--|-
-|-0------0-----2----2----3----3-----3------3-----3-----3-----3-----3----3--|-
-|-2------------0---------3----3------------3-----------3-----------3----3--|-
-|-3----------------------1----------------------------------------------1--|-
 G1                                                                           

-|--------------------------------------------------------------------------|-
-|-0------------0---------0-------------------------------------------------|-
-|-0------------2---------0-------------------------------------------------|-
-|-0------------2---------3-------------------------------------------------|-
-|-2------------0---------3-------------------------------------------------|-
-|-3----------------------1-------------------------------------------------|-
 G2                                                                           

-|----------------------------------------------------------------------|-----
-|-0-0-0---0--0-0-0--0----0-0-0--0----0----0-0-0--0---0-0-0---0---0---0-|-----
-|-0-0-0---0--0-0-0--0----0-0-0--0----0----0-0-0--0---0-0-0---0---0-0-0-|-----
-|---3-----3----3----2------2----3----3------3----3-----3-----0-----0---|-----
-|---------3---------2-----------3----3-----------3-----------2---------|-----
-|-------------------0-----------1----------------------------3---------|-----
 G1                                                                           

-|--------------------------------------------------------------------------|-
-|-------------------------------0------------------------------------------|-
-|-------------------------------0------------------------------------------|-
-|-------------------------------3------------------------------------------|-
-|-------------------------------3------------------------------------------|-
-|-------------------0-----------1------------------------------------------|-
 G2                                                                           

-|----------------------------------------------------------------------|-----
-|-0-----0-----0----0-0-0---0---0-0-0---0---0---0---0---0----0---0---0--|-----
-|-0-----0-----0----0-0-0---0---0-0-0---0---0---0-0-0---0----0---0-0-0--|-----
-|-2-----2-----2------2-----3-----3-----0---0-----0-----0----0-----0----|-----
-|-3-----3-----3------------3-----------2---2-----------2----2----------|-----
-|--------------------------1-----------3---3-----------3----3----------|-----
 G1 Last Chorus                                                               

-|-----------------------------------------------------------------|----------
-|-0--0--0-0-0--0--0-0-0--0--0-0-0--0--0--0---0-0--0---0-0--0---0--|----------
-|-0--0--0-0-0--0--0-0-0--0--0-0-0--0--0--0-0-0-0--0-0-0-0--0-0-0--|----------
-|-2--2----2----2----2----3----3----0--0----0---0----0---0----0----|----------
-|-3----------------------3---------2--2--------2--------2---------|----------
-|------------------------1---------3--3--------3--------3---------|----------
 G1                                                                           

-|-------------------------------------------------------------------|--------
-|-0-----0-----0----0-0-0---0---0-0-0---0---0---0---0---0-0---0---0--|--------
-|-0-----0-----0----0-0-0---0---0-0-0---0---0---0---0-0-0-0---0-0-0--|--------
-|-2-----2-----2------2-----3-----3-----0---0---0-----0---0-----0----|--------
-|-3-----3-----3------------3-----------2---2---2---------2----------|--------
-|--------------------------1-----------3---3---3---------3----------|--------
 G1                                                                           

-|-----------------------------------------------|----------------------------
-|-0---0---0-0-0--0---0-0-0--0---0-0-0--0--------|----------------------------
-|-0---0---0-0-0--0---0-0-0--0---0-0-0--0--------|----------------------------
-|-2---2-----2----2-----2----3-----3----0--------|----------------------------
-|-3-------------------------3----------2--------|----------------------------
-|---------------------------1----------3--------|----------------------------
 G1                                                                           

-|----------------------------------------------------|---------|-------------
-|-0----0------0-0-0-----0-----0-0-0---0-----0-0-0----|---0-----|-------------
-|-0----0------0-0-0-----0-----0-0-0---0-----0-0-0----|---0-----|-------------
-|-2----2--------2-------2-------2-----3-------3------|---2-----|-------------
-|-3-----------------------------------3--------------|---3-----|-------------
-|-------------------------------------1--------------|---------|-------------
 G1 Outro                                          3x          End            

-|--------|------------------------|----------------|------------------|------
-|--------|------------------------|----------------|------------------|------
-|--------|------------------------|----------------|------------------|------
-|-2------|--3----2-----0----------|---3---0---2----|--3---2---0-------|------
-|--------|------------------3-----|----------------|-------------3----|------
-|--------|------------------------|----------------|------------------|------
 G2 Outro                       2x                                   End      

Tap to rate this tab
# A B C D E F G H I J K L M N O P Q R S T U V W X Y Z