Song name
# A B C D E F G H I J K L M N O P Q R S T U V W X Y Z

Pearl Jam - Parting Ways tab

===========================================================
Artist: Pearl Jam
Song: Parting Ways
Album: Binaural
===========================================================

Guitar I  - Standard (E A D G B E)
Guitar II - Standard (E A D G B E)

===========================================================
Tabbed By: Adam
Email: adam_linnell@hotmail.com
===========================================================
Legend

b* - Bend
s - Slide
h  - Hammer on
p  - Pull off
~  - Vibrato

===========================================================
Intro/Verse 1

 G1
   E		     E			 A
|--0-----------------0-------------------0----------------------|
|--0-----------------0------0------------2--0-2-2s3-2-0---0-2---|
|--1--0-1---2--1-0-1-1--0-1-----1-2-1----2--------------2----2--|
|--2-----------------2----------------2--2----------------------|
|--2-----------------2-------------------0----------------------|
|--0-----------------0------------------------------------------|
|G2
|--0-----------------0-------------------0----------------------|
|--0-----------------0-------------------2----------------------|
|--1-----------------1-------------------2----------------------|
|--2-----------------2-------------------2----------------------|
|--2-----------------2-------------------0----------------------|
|--0-----------------0------------------------------------------|

-"behind her....curtains...closed......flames.........
-"she knows.......burnin'..smile........same..........

 G1
   A
--0--------------------------|
--2--0-2-2s3-2-0---0-2-------|
--2--------------2----2------|
--2--------------------------|
--0--------------------------|
-----------------------------|
G2
--0--------------------------|
--2--------------------------|
--2--------------------------|
--2--------------------------|
--0--------------------------|
-----------------------------|
..remains"
..same"

x3 (Singing Begins Second Time)^

===============================================================
Chorus - 0.55

 G1
     F#     G	        E		      F#     G      E      E
|----2------3-----------0---------------------2------3------0------0-------|
|----2------3-----------0---------------------2------3------0------0-------|
|----3------4-----------1--0-1---2-1-0-1------3------4------1------1-------|
|----4------5-----------2---------------------4------5------2------2-------|
|----4------5-----------2---------------------4------5------2------2-------|
|----2------3-----------0---------------------2------3------0------0-------|
|G2
|-----------------------0-----------------------------------0------0-------|
|-----------------------0-----------------------------------0------0-------|
|-----------------------1-----------------------------------1------1-------|
|-----------------------2-----------------------------------2------2-------|
|-4------5--------------2------------------4------5---------2------2-------|
|-2------3--------------0------------------2------3---------0------0-------|

===============================================================
Post Chorus/Verse 2 - 1.18

 G1
   E		     E			 A
|--0-----------------0-------------------0----------------------|
|--0-----------------0------0------------2--0-2-2s3-2-0---0-2---|
|--1--0-1---2--1-0-1-1--0-1-----1-2-1----2--------------2----2--|
|--2-----------------2----------------2--2----------------------|
|--2-----------------2-------------------0----------------------|
|--0-----------------0------------------------------------------|
|G2
|--0-----------------0-------------------0----------------------|
|--0-----------------0-------------------2----------------------|
|--1-----------------1-------------------2----------------------|
|--2-----------------2-------------------2----------------------|
|--2-----------------2-------------------0----------------------|
|--0-----------------0------------------------------------------|

-"Standing.......statue...stone.........clay........

 G1
  A
--0--------------------------|
--2--0-2-2s3-2-0---0-2-------|
--2--------------2----2------|
--2--------------------------|
--0--------------------------|
-----------------------------|
G2
--0--------------------------|
--2--------------------------|
--2--------------------------|
--2--------------------------|
--0--------------------------|
-----------------------------|
..Hey"

x2 (Singing Begins Second Time)^


Post Chorus/Verse 2 - 1.18


===============================================================

Chorus - 1.55

 G1
     F#     G	        E		      F#     G      E      E
|----2------3-----------0---------------------2------3------0------0-------|
|----2------3-----------0---------------------2------3------0------0-------|
|----3------4-----------1--0-1---2-1-0-1------3------4------1------1-------|
|----4------5-----------2---------------------4------5------2------2-------|
|----4------5-----------2---------------------4------5------2------2-------|
|----2------3-----------0---------------------2------3------0------0-------|
|G2
|-----------------------0-----------------------------------0------0-------|
|-----------------------0-----------------------------------0------0-------|
|-----------------------1-----------------------------------1------1-------|
|-----------------------2-----------------------------------2------2-------|
|-4------5--------------2------------------4------5---------2------2-------|
|-2------3--------------0------------------2------3---------0------0-------|


===============================================================

Outro - 2.18

 G1

|---------------------0---------------------------|
|-----------------------0-------------------------|
|------------------------------4p0-------2p0------|
|----------------------------4---------2----------|
|--------------------------2---------0------------|
|-------------------------------------------------|
|G2
|---0-----------0---------------------------------|
|---0-----------0---------------------------------|
|---1-----------1---------------------------------|
|---2-----------2---------------------------------|
|---2-----------2---------------------------------|
|---0-----------0---------------------------------|

--------0----------------------------|
----------0--------------------------|
-----------------4p0-------2p0-------|
---------------4---------2-----------|
-------------2---------0-------------|
-------------------------------------|
G2
--0----------------------------------|
--0----------------------------------|
--1----------------------------------|
--2----------------------------------|
--2----------------------------------|
--0----------------------------------|


Play while Eddie sings "Drifting Away" until the end of the song.
Tap to rate this tab
# A B C D E F G H I J K L M N O P Q R S T U V W X Y Z