Guitaretab - guitar tabs
Song name
# A B C D E F G H I J K L M N O P Q R S T U V W X Y Z

Pearl Jam - Yield tab

Band  : Pearl Jam
Album : yield
Added By Mikhailo

There are many different versions of these tabs - I've pasted together the
ones I think are most accurate...hope you agree...



brain of j



Transcribed by: Chris Wilson, Evan Cowan (Solo and Bridge Lick) and Richard Van 
Email: yokel@zip.com.au, icowan@marin.k12.ca.us and Richard.van.Windergen@cmg.nl

Chris's Notes : This is the best i could work this song out using SVT
and the studio version.
It is still not a perfect tab, but it is as close as i can get at this time.
Mike is Dropped-D
Stone is Standard
I included Jeff's run in the Chorus to give you a better understanding of it.
Evan's Notes : In the solo, whenever there is a 9br9
that's a double stop quarter step bend.



1-2-3-4 1-2-3-4.......

-|-----------------|-------------------|-----------------|-----------------|--
-|-----------------|-------------------|-----------------|-----------------|--
-|--x--4--4--3--3--|-------------------|-----------------|-----------------|--
-|--x--4--4--3--3--|--9-9-9--8-8-8--7--|--7-7-8-7-8-0-0--|--9-9-9-8-8-8-7--|--
-|--x--2--2--1--1--|--9-9-9--8-8-8--7--|--7-7-8-7-8-0-0--|--9-9-9-8-8-8-7--|--
-|-----------------|--9-9-9--8-8-8--7--|--7-7-8-7-8-0-0--|--9-9-9-8-8-8-7--|--

  Intro Mike                                                                  

-|-----------------|-------------------|-------------------|------------------
-|-----------------|-------------------|-------------------|------------------
-|-----------------|---------7---------|-------------------|------------------
-|--9-9-9-8-8-8-7--|--7-8-9--7--9-0-0--|--9-9-9--8-8-8--7--|------------------
-|--9-9-9-8-8-8-7--|--7-8-9-----9-0-0--|--9-9-9--8-8-8--7--|------------------
-|--9-9-9-8-8-8-7--|--7-8-9-----9-0-0--|--9-9-9--8-8-8--7--|------------------

  Mike 2x                                                                     

-|-----------------|---------------|-----------------|------------------------
-|-----------------|---------------|-----------------|------------------------
-|-----------------|---------------|-----------------|------------------------
-|-----------------|---------------|-----------------|------------------------
-|-----------------|--------5------|-----------------|------------------------
-|--7-7-7-6-6-6-5--|--5-6-7---7-5--|--7-7-7-6-6-6-5--|------------------------

   Stone 2x                                                                   

-|-----------------|-------------------|-------------------|------------------
-|-----------------|-------------------|-------------------|------------------
-|-----------------|---------7---------|-------------------|------------------
-|--9-9-9-8-8-8-7--|--7-8-9--7--9-0-0--|--9-9-9--8-8-8--7--|------------------
-|--9-9-9-8-8-8-7--|--7-8-9-----9-0-0--|--9-9-9--8-8-8--7--|------------------
-|--9-9-9-8-8-8-7--|--7-8-9-----9-0-0--|--9-9-9--8-8-8--7--|------------------

   Verse Mike 2x                                                              

-|-----------------|---------------|-----------------|------------------------
-|-----------------|---------------|-----------------|------------------------
-|-----------------|---------------|-----------------|------------------------
-|-----------------|---------------|-----------------|------------------------
-|-----------------|--------5------|-----------------|------------------------
-|--7-7-7-6-6-6-5--|--5-6-7---7-5--|--7-7-7-6-6-6-5--|------------------------

  Stone 2x                                                                    

-|------------------------------------------------------------------|---------
-|--12-12p0-12p0-12p0-12p0-12p0-12p0-12p0-12p0-12p0-12p0-12p0-12p0--|---------
-|------------------------------------------------------------------|---------
-|------------------------------------------------------------------|---------
-|------------------------------------------------------------------|---------
-|------------------------------------------------------------------|---------

  Gtr.3  2x  Played Loosely                                                   

-|---------------------------------|------------------------------------------
-|--15p0-15p0-15p0-15p0-15p0-15p0--|------------------------------------------
-|---------------------------------|------------------------------------------
-|---------------------------------|------------------------------------------
-|---------------------------------|------------------------------------------
-|---------------------------------|------------------------------------------

                                                                              
-|-x-x----10----------------10--------------|---------------------------------
-|-x-x----13----------------13--------------|---------------------------------
-|-x-x----12----------------12--------------|---------------------------------
-|-x-x-10-10-10-10-10-10-10-10-10-10-10-10--|---------------------------------
-|-x-x-10-10-10-10-10-10-10-10-10-10-10-10--|---------------------------------
-|-x-x-10-10-10-10-10-10-10-10-10-10-10-10--|---------------------------------

 Chrous Mike                                                                  

-|--------------------------|-------------------------------------------------
-|--------------------------|-------------------------------------------------
-|--------------------------|-------------------------------------------------
-|--x-x--10-10-10-10-10-10--|-------------------------------------------------
-|--x-x--10-10-10-10-10-10--|-------------------------------------------------
-|--x-x--8--8--8--8--8--8---|-------------------------------------------------

  Stone x2                                                                    

-|-----------------|----------|-----------------|----------|------------------
-|-----------------|----------|-----------------|----------|------------------
-|-----------------|----------|-----------------|----------|------------------
-|-----------------|----------|-----------------|----------|------------------
-|-----------------|----------|-----------------|----------|------------------
-|--10-10-10-10-3--|--10-6-3--|--10-10-10-10-3--|--10-6-8--|------------------

   Jeff Dropped-D                                                             


-|--x-x--11-11-11-10-8-|------------------|--11-11-11-10-8-|---------|--------
-|--x-x--8--8--8--8--8-|--11-11---11p8----|--8--8--8--8--8-|--11b13--|--------
-|--x-x----------------|--9-----9------9--|----------------|---------|--------
-|---------------------|------------------|----------------|---------|--------
-|---------------------|------------------|----------------|---------|--------
-|---------------------|------------------|----------------|---------|--------

                                                                              
-|--x-x-x-x--|--11-11-11-10-8-|------------------|--11-11-11-10-8-|-----------
-|--x-x-x-x--|--8--8--8--8--8-|--11-11---11p9----|--8--8--8--8--8-|-----------
-|--x-x-x-x--|----------------|--9-----9------9--|----------------|-----------
-|-----------|----------------|------------------|----------------|-----------
-|-----------|----------------|------------------|----------------|-----------
-|-----------|----------------|------------------|----------------|-----------

   With Fill 1                                                                

-|-------------------|--------------|---------|-------------------------------
-|--11b13r11b13-11\--|--------------|---10----|-------------------------------
-|-------------------|--8----8h10-8-|---------|-------------------------------
-|-------------------|----10--------|---------|-------------------------------
-|-------------------|--------------|---------|-------------------------------
-|-------------------|--------------|---------|-------------------------------

                        Fill 1       Fill 2  w/wah                            

-|-----|----------|--x-x--0h2p0----------0h2p0--------|-----------------------
-|-----|----------|--x-x--------3-0-3----------3-0-3--|-----------------------
-|-----|----------|--x-x--------------2---------------|-----------------------
-|--0--|----------|-----------------------------------|-----------------------
-|--0--|----------|-----------------------------------|-----------------------
-|--0--|----------|-----------------------------------|-----------------------

   Mike Let Ring   Bridge                                                     

-|---------------------------|-------------------|-------------------|--------
-|--10-10-10-10-10-10-10-10--|--8-8-8-8-8-8-8-8--|--7-7-7-7-7-7-7-7--|--------
-|---------------------------|-------------------|-------------------|--------
-|---------------------------|-------------------|-------------------|--------
-|---------------------------|-------------------|-------------------|--------
-|---------------------------|-------------------|-------------------|--------

  Mike                                                                        

-|-----------|-----------|---------------------------|-------------------|----
-|--3-3-3-3--|--3-3-3-3--|--10-10-10-10-10-10-10-10--|--8-8-8-8-8-8-8-8--|----
-|-----------|-----------|---------------------------|-------------------|----
-|-----------|-----------|---------------------------|-------------------|----
-|-----------|-----------|---------------------------|-------------------|----
-|-----------|-----------|---------------------------|-------------------|----

                 With Fill 2                                                  

-|---------------------------|---------------------------------------|--------
-|--7-7-7-7-7-7-7-7-7-7-7-7--|--3-3-3-3-3-3-3-3-3-3*-3-3-3-3/5-3--3--|--------
-|---------------------------|---------------------------------------|--------
-|---------------------------|---------------------------------------|--------
-|---------------------------|---------------------------------------|--------
-|---------------------------|---------------------------------------|--------

                                                                              
-|----------------------------|-----------------------------------------------
-|--3-3-3-3-3-3-3/5-5-3-3-3---|-----------------------------------------------
-|----------------------------|-----------------------------------------------
-|----------------------------|-----------------------------------------------
-|----------------------------|-----------------------------------------------
-|----------------------------|-----------------------------------------------

  *Stone PM-----|                  Both Gtrs. Break Into Dist. Near End       

-|--------------------|--------------------|----------------------------------
-|--------------------|--------------------|----------------------------------
-|--------------------|--------------------|----------------------------------
-|--7--9--9--8--9--8--|--7--9--9--8--9--8--|----------------------------------
-|--7--9--9--8--9--8--|--7--9--9--8--9--8--|----------------------------------
-|--7--9--9--8--9--8--|--5--7--7--6--7--6--|----------------------------------

   Mike                 Stone                                                 

-|------------------------------------------------------------------|---------
-|------------------------------------------------------------------|---------
-|--9b11vvvvvvv-9b11-9b11-11-11-11-11-11-11-11-9b11r9-7-9b11r9-7----|---------
-|---------------------------------------------------------------9--|---------
-|------------------------------------------------------------------|---------
-|------------------------------------------------------------------|---------

   Solo Stone                                                                 

-|---------------|--------------------------------------|---------------------
-|---------------|--7br7---7br7---7b--9b10r9------------|---------------------
-|--7-9-7---7----|--7br7---7br7---7b--9b10r9-7---7------|---------------------
-|--------9---9--|-------9------9--------------9---9-7--|---------------------
-|---------------|--------------------------------------|---------------------
-|---------------|--------------------------------------|---------------------

                                                                              
-|--10b12r10----10-----------------|--12-12-12-12-12-12-12-12-12\---|---------
-|-----------12----12-10-12vvvvv\--|--12-12-12-12-12-12-12-12-12\\--|---------
-|---------------------------------|-----------------------------\--|---------
-|---------------------------------|--------------------------------|---------
-|---------------------------------|--------------------------------|---------
-|---------------------------------|--------------------------------|---------

                                     Continue To Pick As You Slide Down 2x    

-|-------------------------------------|--7-----------------10b13vvvr10----|--
-|--9br9---9br9---9br9-----------------|----10p7---7--------------------13-|--
-|--9br9-7-9br9-7-9br9-7--7-9-7-9-7-9--|---------9---9-7-------------------|--
-|-------------------------------------|-----------------9-----------------|--
-|-------------------------------------|-----------------------------------|--
-|-------------------------------------|-----------------------------------|--

                                                                              
-|-----------------|-----------------|-----------------|----------------------
-|-----------------|-----------------|-----------------|----------------------
-|-----------------|--------7--------|-----------------|----------------------
-|--9-9-9-8-8-8-7--|--7-8-9-7-9-0-0--|--9-9-9-8-8-8-7--|----------------------
-|--9-9-9-8-8-8-7--|--7-8-9---9-0-0--|--9-9-9-8-8-8-7--|----------------------
-|--9-9-9-8-8-8-7--|--7-8-9---9-0-0--|--9-9-9-8-8-8-7--|----------------------

   Mike                                                                       

-|--------------------------|--15-15-15-15-15-15-15-15-15-15-x-15-x-15--|-----
-|--13-13-13-13-13-13-13-13-|--13-13-13-13-13-13-13-13-13-13-x-13-x-13--|-----
-|--------------------------|-------------------------------------------|-----
-|--------------------------|-------------------------------------------|-----
-|--------------------------|-------------------------------------------|-----
-|--------------------------|-------------------------------------------|-----

 Last Chorus Fills Gtr. 3 2x                     2x   approx.                 

-|--------------------|---------------------|---------------------|-----------
-|--------------------|---------------------|---------------------|-----------
-|--------------------|----------8----------|---------------------|-----------
-|--10-10-10-9-9-9-8--|--8-9-10--8--10-0-0--|--10-10-10-9-9-9-8\--|-----------
-|--10-10-10-9-9-9-8--|--8-9-10-----10-0-0--|--10-10-10-9-9-9-8\--|-----------
-|--10-10-10-9-9-9-8--|--8-9-10-----10-0-0--|--10-10-10-9-9-9-8\--|-----------

   Outro Mike                                                                 

-|-----------------|---------------|------------------|-----------------------
-|-----------------|---------------|------------------|-----------------------
-|-----------------|---------------|------------------|-----------------------
-|-----------------|---------------|------------------|-----------------------
-|-----------------|--------6------|------------------|-----------------------
-|--8-8-8-7-7-7-6--|--6-7-8---7-6--|--8-8-8-7-7-7-6\--|-----------------------

   Stone                                                                      





faithfull



Tabbed by brainofj@iname.com

Yield Tabs and Lyrics - http://www.mnsi.net/~mwcox

Standard Tuning

Legend

^ = 1/2 bend
h = hammer
p = pull off
/ = slide


E----3-3-3-3-3-3-3-3-3-6-5-5-5-5-5-5-5-5-5-7-----
B----1-1-1-1-1-1-1-1-1-4-3-3-3-3-3-3-3-3-3-5-----
G------------------------------------------------
D------------------------------------------------
A------------------------------------------------
E------------------------------------------------

E----3-3-3-3-3-3-3-3-3-6-5-5-5-5-7-5-5-5-5------------
B----1-1-1-1-1-1-1-1-1-4-3-3-3-3-3-3-3-3-3-3-h5p-0----
G-----------------------------------------------------
D-----------------------------------------------------
A-----------------------------------------------------
E-----------------------------------------------------

"Plaque on the wall says that.....no ones slept here...it's rare"

E----3-3-3-3-3-3-3-3-3-6-5-5-5-5-7-5-5-5-5-7-----------------------
B----1-1-1-1-1-1-1-1-1-4-3-3-3-3-3-3-3-3-3-3-----------------------
G----------------------------------------------------repeat x4-----
D------------------------------------------------------------------
A------------------------------------------------------------------
E------------------------------------------------------------------

Cue distortion
                 
                 "An echo nobody hears....it goes it goes it goes.." 
E---------------------------------------------------------
B---------------------------------------------------------
G---------------------------------------------------------
D---10---8---5---8-8-8-8--5---10---8---5---8-8-8-8---5----
A---10^--8---5---8-8-8-8--5---10^--8---5---8-8-8-8---5----
E----8^--6---3---6-6-6-6--3----8^--6---3---6-6-6-6---3----


"We're faithful...             we all believe...we all believe it..."

E--------3-3----------3-3-----------------------3-3-3-3-3-----
B--------3-3----------3-3-----------------------3-3-3-3-3-----
G----5---4-4------5---4-4---/-12-----5-5-5-5-5--4-4-4-4-4-----
D----5---5-5------5---5-5------------5-5-5-5-5--5-5-5-5-5-----
A----3---5-5------3---5-5------------3-3-3-3-3--5-5-5-5-5-----
E--------3-3----------3-3-----------------------3-3-3-3-3-----

"We're faithful...             we all believe...we all believe it..."
E--------3-3----------3-3-----------------------3-3-3-3-3-----
B--------3-3----------3-3-----------------------3-3-3-3-3-----
G----5---4-4------5---4-4---/-12-----5-5-5-5-5--4-4-4-4-4-----
D----5---5-5------5---5-5------------5-5-5-5-5--5-5-5-5-5-----
A----3---5-5------3---5-5------------3-3-3-3-3--5-5-5-5-5-----
E--------3-3----------3-3-----------------------3-3-3-3-3-----

"We're faithful...             we all believe...we all believe it..."
E--------3-3----------3-3-----------------------3-3-3-3-3-----
B--------3-3----------3-3---/-15----------------3-3-3-3-3-----
G----5---4-4------5---4-4------------5-5-5-5-5--4-4-4-4-4-----
D----5---5-5------5---5-5------------5-5-5-5-5--5-5-5-5-5-----
A----3---5-5------3---5-5------------3-3-3-3-3--5-5-5-5-5-----
E--------3-3----------3-3-----------------------3-3-3-3-3-----

"We're faithful...             we all believe...we all believe it..."
E--------3-3----------3-3-----------------------3-3-3-3-3-----
B--------3-3----------3-3---/-15----------------3-3-3-3-3-----
G----5---4-4------5---4-4------------5-5-5-5-5--4-4-4-4-4-----
D----5---5-5------5---5-5------------5-5-5-5-5--5-5-5-5-5-----
A----3---5-5------3---5-5------------3-3-3-3-3--5-5-5-5-5-----
E--------3-3----------3-3-----------------------3-3-3-3-3-----


Fast part goes something like this:

E--------------------------------------------------------------
B--------------------------------12-12--10-12----12-12--10-12--
G--------------------------------12-12--10-12----12-12--10-12--
D----8-------10----------10------12-12--10-12----12-12--10-12--
A----8-------10^---------10------10-10--10-10----10-10--10-10--
E----6-(0)----8^---(0)----8------------------------------------

E-------------------------------------------------------------
B---------------------------------------------12-12--10-12----
G---------------------------------------------12-12--10-12----
D-------------------13------------------15----12-12--10-12----
A-------------------13------------------15----10-10--10-10----
E---6-h-8-p-6-p-0---11---6-h-8-p-6-p-0--13--------------------

E-------------------------------------------------------------
B---------------------------------------------12-12--10-12----
G---------------------------------------------12-12--10-12----
D--------------------8------------------10----12-12--10-12----
A--------------------8------------------10----10-10--10-10----
E-----6-h-8-p-6-p-0--6---6-h-8-p-6-p-0---8--------------------


(Guitar 2 riff.  Use a full bend)					

E------^----------^--------------------------------
B------^----------^--------------------------------
G----10^-(10)---10^-(10)---------------------------
D-------------------------10--10-h-12---10---5--0--
A--------------------------------------------------
E--------------------------------------------------

						Both G1 and G2
E---------------------------------------------------------------
B-----------------------------------------------12-12--10-12----
G-----------------------------------------------12-12--10-12----
D---------------------13------------------15----12-12--10-12----
A---------------------13------------------15----10-10--10-10----
E-----6-h-8-p-6-p-0---11---6-h-8-p-6-p-0--13--------------------


E----------------------------|-----------------------------
B----------------------------|-----------------------------
G----------------------------|-----------------------------
D---10---8---5---8-8-8-8--5--|--10----8---5---8-8-8-8---5--
A---10^--8---5---8-8-8-8--5--|--10^---8---5---8-8-8-8---5--
E----8^--6---3---6-6-6-6--3--|---8^---6---3---6-6-6-6---3--
  
                 An echo..........nobody hears it goes it goes it goes.."



"We're faithful...             we all believe...we all believe it..."

E--------3-3----------3-3-----------------------3-3-3-3-3-----
B--------3-3----------3-3-----------------------3-3-3-3-3-----
G----5---4-4------5---4-4---/-12-----5-5-5-5-5--4-4-4-4-4-----
D----5---5-5------5---5-5------------5-5-5-5-5--5-5-5-5-5-----
A----3---5-5------3---5-5------------3-3-3-3-3--5-5-5-5-5-----
E--------3-3----------3-3-----------------------3-3-3-3-3-----

"We're faithful...             we all believe...we all believe it..."

E--------3-3----------3-3-----------------------3-3-3-3-3-----
B--------3-3----------3-3-----------------------3-3-3-3-3-----
G----5---4-4------5---4-4---/-12-----5-5-5-5-5--4-4-4-4-4-----
D----5---5-5------5---5-5------------5-5-5-5-5--5-5-5-5-5-----
A----3---5-5------3---5-5------------3-3-3-3-3--5-5-5-5-5-----
E--------3-3----------3-3-----------------------3-3-3-3-3-----

"We're faithful...             we all believe...we all believe it..."
E--------3-3----------3-3-----------------------3-3-3-3-3-----
B--------3-3----------3-3---/-15----------------3-3-3-3-3-----
G----5---4-4------5---4-4------------5-5-5-5-5--4-4-4-4-4-----
D----5---5-5------5---5-5------------5-5-5-5-5--5-5-5-5-5-----
A----3---5-5------3---5-5------------3-3-3-3-3--5-5-5-5-5-----
E--------3-3----------3-3-----------------------3-3-3-3-3-----

"We're faithful...             we all believe...we all believe it..."
E--------3-3----------3-3-----------------------3-3-3-3-3-----
B--------3-3----------3-3---/-15----------------3-3-3-3-3-----
G----5---4-4------5---4-4------------5-5-5-5-5--4-4-4-4-4-----
D----5---5-5------5---5-5------------5-5-5-5-5--5-5-5-5-5-----
A----3---5-5------3---5-5------------3-3-3-3-3--5-5-5-5-5-----
E--------3-3----------3-3-----------------------3-3-3-3-3-----


Then back to the beginning.  Except it ends like this:

E----3-3-3-3-3-3-3-3-3-6-----------
B----1-1-1-1-1-1-1-1-1-4--3--------
G-------------------------0--------
D----------------------------------
A----------------------------------
E----------------------------------


faithfull

Plaque on the wall says that no one's slept here 
It's rare to come upon a bridge that has not been around or been stepped on 
Whatever the notions we laced in our prayers 
The man upstairs is used to all of this noise 
I'm through with screaming
An echo nobody hears, it goes, it goes, it goes 
Like echoes nobody hears, it goes, it goes, it goes like this 

We're faithful, we all believe, we all believe it (x4) 

An echo nobody hears, it goes, it goes, it goes 
An echo nobody hears, it goes, it goes, it goes like this 

We're faithful, we all believe, we all believe it (x4) 

M.Y.T.H is belief in the game. Controls. 
That keeps us in a box of fear 
We never listen, voice inside so drowned out, drowned you are
You are, you are a furry thing and everything is you 
Me you, you me, it's all related what's a boy to do? 
Just be darling and I will be too 
faithful to you.


no way

Something Wrong? Email brainofj@iname.com

Drop to D tuning

Legend 

/ = slide
X = rake strings

Intro.  To get the sound of the guitar right, you can switch on a wah wah 
pedal and leave it in one position. It gives it that hollow sound.

E----------------------------------------------
B----------------------------------------------
G----------------------------------------------
D------9----9-9--9-9--/--5-5-5-5-5-------------
A------9----9-9-11-9--/--5-5-5-5-5-------------
E------9----9-9--9-9--/--5-5-5-5-5-------------


Heavy distortion.

"ooooh lets call it an angel....ooooh lets call it an angel..."      

E---------------------------------------------
B---------------------------------------------
G---------------------------------------------
D-------0-0-0-0-2-2-2-2-3-3-3-3-6-6-6-6-------
A-------0-0-0-0-2-2-2-2-3-3-3-3-6-6-6-6-------
E-------0-0-0-0-2-2-2-2-3-3-3-3-6-6-6-6-------


Bridge, with wah wah pedal:
E--------------------------------------------------------
B-------------------------------------3------------------
G-------3--X--2-------0-2-3--X--2---2---2-0--------------
D-------0--X--0--3------0-0--X--0------------------------
A--------------------------------------------------------
E--------------------------------------------------------

E--------------------------------------------------------
B--------------------------------------------------------
G-------3--X--2------------------------------------------
D-------0--X--0--3---0-3-3/5--5/12-----------------------
A--------------------------------------------------------
E--------------------------------------------------------
  


no way



Here's a token of my openness 
Of my need to not disappear 
How I'm feeling is so revealing to me 
I found my mind too clear 
I just need someone to be there for...me 
I just want someone to be there for...me 

All the static in my attic(a) 
Shoots down my sciatic nerve 
To the ocean, all my platitudes 
Longitudes, latitudes, it's so absurd 
I just need someone to be there for... 
I just want someone to be there for... 
Someone to be there for me

Cause I'll stop trying to make a difference 
I'm not trying to make a difference 
I'll stop trying to make a difference, no way 
Cause I'll stop trying to make a difference 
I'm not trying to make a difference 
I'll stop trying to make a difference, no way 

Ooh, let's call it an angel  (x3) 

Cause I'll stop trying to make a difference 
I'm not trying to make a difference 
I'll stop trying to make a difference, no way 
Cause I'll stop trying to make a difference 
I'm not trying to make a difference 
I'll stop trying to make a difference, no way
No way 

Let's call it an angel 
Who's calling an angel 




given to fly



From: Kyle Matteson 

here is my first attempt at given to fly

the opening part sounds pretty damn close to the album\par
for some reason it was really easy to figure out\par

here goes

standard tuning

Intro and Verse
E |-------------------------7-------------------------------------
B |------------8---------------8-------------7------------5---3---
G |---------------0---------------0-------------0---------0---0---
D |---------------------------------------------------------------
A |-----0^10----------10---------------8^9-----------9----7---5---
E |---------------------------------------------------------------


E |-------------------------7---------------------------------
B |------------8---------------8-------------7------------3---
G |----------------0--------------0--------------0--------0---
D |-----------------------------------------------------------
A |-----0^10-----------10--------------8^9-----------9----5---
E |-----------------------------------------------------------

                       *
E |-------------------5------------2--------5------------2--
B |--3---------------------3---5-------3---------3---5------
G |-------0-------------------------------------------------
D |-------------------4---------------------4---------------
A |-----------5---------------------------------------------
E |---------------------------------------------------------

that's about all for the intro and verse it just repeats that

right before it gets heavy it plays the part with the * twice

if it seems tough or like it sounds wierd try this,

its based on a really wierd chord that is pretty much just slid up and down

the chords are as follows

E |-----7----6----4----2----
B |-----8----7----5----3----
G |-----0----0----0----0----
D |-----9----8----6----4----
A |----10----9----7----5----
E |-------------------------

verse starts picking up:Guitar comes in strumming D w/ distortion

E |--7-7-7-7-8-7--7-7-7-7-8-7--7-7-7-7-8-7--7-7-7-7-8-7--2-2-2-2-2-2-2|
B |--8-8-8-8-8-8--8-8-8-8-8-8--8-8-8-8-8-8--8-8-8-8-8-8--3-3-3-3-3-3-3|
G |--0-0-0-0-0-0--0-0-0-0-0-0--0-0-0-0-0-0--0-0-0-0-0-0--2-2-2-2-2-2-2|
D |-------------------------------------------------------------------|
A |-------------------------------------------------------------------|
E |-------------------------------------------------------------------|

let an open G note ring throughout above.

chorus:"he's..."
Guitar 1:*
E |--------x-8--x-8--x-8--x-x-x-x-x-x--x-8--x-8--x--8--8--7-5-3-3-3-3-|
B |--------x-8--x-8--x-8--x-x-x-x-x-x--x-8--x-8--x--8--8--7-5-3-3-3-3-|
G |--------x-9--x-9--x-9--x-x-x-x-x-x--x-9--x-9--x--9--9--8-6-4-4-4-4-|
D |--------x-10-x-10-x-10-x-x-x-x-x-x--x-10-x-10-x--10-10-9-7-5-5-5-5-|
A |--------x-10-x-10-x-10-x-x-x-x-x-x--x-10-x-10-x--10-10-9-7-5-5-5-5-|
E |--------x-8--x-8--x-8--x-x-x-x-x-x--x-8--x-8--x--8--8--7-5-3-3-3-3-|

*instead of the palm mutings before the C chord...you can substitute a B at
the 7th fret...it'll sound a little better but not much different.

Guitar 2:
E |----------------------------------------------------3-3-3-------3-3|
B |-----------------------------------------5-5--4--2--3-3-3-------3-3|
G |--x-5-x-5-x-5--x-x-x-x-x-x--x-5-x-5-x-5--5-5--4--2--0-0-0-0h2p0-0-0|
D |--x-5-x-5-x-5--x-x-x-x-x-x--x-5-x-5-x-5--5-5--4--2--0-0-0-------0-0|
A |--x-3-x-3-x-3--x-x-x-x-x-x--x-3-x-3-x-3--3-3--2--0-----------------|
E |----------------------------------------------------3-3-3-------3-3|

at the end of the chorus...this is played as a fill:
E |-------------------------------------------------------------------|
B |-------------------------------------------------------------------|
G |-0---0h2--0--2--0--twice then pick up w/ the verse riff------------|
D |-------------------------------------------------------------------|
A |-------------------------------------------------------------------|
E |-------------------------------------------------------------------|

during the next verse, this fill starts to come in before it gets heavy:
E |-------------------------------------------------------------------|
B |-------------------------------------------------------------------|
G |--7-7---7-7----7-7--7-7---7-7---7-7-then build into the D----------|
D |-----------------------------------------------chord like the------|
A |-------------------------------------------------------1st verse---|
E |-------------------------------------------------------------------|

fill during heavy part of 2nd verse:
E |-------------------------------------------------------------------|
B |-------------------------------------------------------------------|
G |-------------------------------------------------------------------|
D |---7-7-7-7s5---5s4---2p0--2p0--7-7-7-7s5---5s4--2p0--2p0-----------|
A |-------------------------------------------------------------------|
E |-------------------------------------------------------------------|

E |-------------------------------------------------------------------|
B |-------------------------------------------------------------------|
G |-------------------------------------------------------------------|
D |---7-7-7-7s5---5s4---2p0--2p0--7-7-7-7s5---5s4--2p0--2p0-0-0-s4-4--|
A |-------------------------------------------------------------------|
E |-------------------------------------------------------------------|


Ending    					   6x

E |----7------------------------7-----8---7----------
B |-------8--6-----8---6---8------8----------8--6----
G |--------------------------------------------------
D |--------------------------------------------------
A |--------------------------------------------------
E |--------------------------------------------------
   
        			let ring
E |----7----------------------------------------------------------------------------------
B |--------8---6------8 / 3-----------------------3----------3---------3---------3--------
G |---------------------------------------2-------2-----2----2----2----2----2----2----2---
D |---------------------------------------0-------0-----0----0----0----0----0----0----0---
A |---------------------------------------------------------------------------------------
E |-----------------------------------------------------3---------3---------3---------3---


He could have tuned in, tuned in, but he tuned out
a bad time, nothing could save him
Alone in a corridor, waiting, locked out
he got up out of there, ran for hundreds of miles
He made it to the ocean
had a smoke and a tea
The wind rose up, set him down on his knees
A wave came crashing like a fist to the jaw,
delivered him wings and let him out
Arms wide open with the sea as he's flung
Oh, oh oh... He's flying! Woah!
High! Wide! Oh...
He floated back down 'cause he wanted to share
his key to the locks on the chains he saw everywhere
But first he was stripped, and then he was stabbed
by faceless men, the fuckers... 
He still stands.
And he still gives his love, he just gives it away;
the love he recieves is the love that is saved
And sometimes you see a strange spot in the sky
a human being that was given to flyFlying! 
Woah...High! Flying! 
Woah...Flying Woah...Oh Woah...




wishlist



Transcribed by: Evan Cowan
Email: icowan@marin.k12.ca.us

-|------------------------------------------------------------------|---------
-|------------------------------------------------------------------|---------
-|-0-0-0-0-0-0-0-0-0-0-0-0-0-0-0-0-0-0-0-0-0-0-0-0-0-0-0-0-0-0-0-0--|---------
-|-2-2-0-0-2-2-0-0-2-2-0-0-2-2-0-0-3-3-3-3-3-3-3-3-2-2-0-0-2-2-0-0--|---------
-|-3-3-3-3-3-3-3-3-3-3-3-3-3-3-3-3-3-3-3-3-3-3-3-3-3-3-3-3-3-3-3-3--|---------
-|------------------------------------------------------------------|---------
 Intro, all palm muted, play five times                  (Riff 1)             

-|------------------------------------------------------------------|---------
-|------------------------------------------------------------------|---------
-|-0-0-0-0-0-0-0-0-0-0-0-0-0-0-0-0-0-0-0-0-0-0-0-0-0-0-0-0-0-0-0-0--|---------
-|-2-2-0-0-2-2-0-0-2-2-0-0-2-2-0-0-3-3-3-3-3-3-3-3-2-2-0-0-2-2-0-0--|---------
-|-3-3-3-3-3-3-3-3-3-3-3-3-3-3-3-3-3-3-3-3-3-3-3-3-3-3-3-3-3-3-3-3--|---------
-|------------------------------------------------------------------|---------
 6th time:p.m.--------------------------| let ring                            

-|-1-------0-------1-------0------------1-------0-------3-----1---------|-----
-|-1-------1-------1-------1------------1-------1-------3-----1---------|-----
-|-2-------0-------2-------0------------2-------0-------4-----2---------|-----
-|-3-------2-------3-------2--3---0-2---3-------2-------5-----3----3----|-----
-|---------3---------------3----3-----3---------3-------5-----3----3----|-----
-|------------------------------------------------------3-----1----0h1--|-----
 Chorus, Guitar 1 (strum/arpeggiate the chords)                               

-|---------------------|-----8------8-----8---------------------8-----|-------
-|---------------8---8-|---8----8-------8-----8---8--8---8----8---8---|-------
-|-9-9-9-9-9-9-9---9---|-9--------9---------9---9------9----9-------9-|-------
-|---------------------|----------------------------------------------|-------
-|---------------------|----------------------------------------------|-------
-|---------------------|----------------------------------------------|-------
 Chorus, guitar 2                                                             

-|---------------------------------------8----0------------------|------------
-|---8------8---------------------0h5h8----8-------6---6---6---6-|------------
-|-9------9------9-------9-----------------------9---9---9---9---|------------
-|-----10-----10------10---10------------------------------------|------------
-|-----------------10---------10---------------------------------|------------
-|---------------------------------------------------------------|------------
                                                                              

-|------------------------|----------------------|----------------------------
-|------------------------|----------------------|----------------------------
-|-0-5----5--5/7--7/9-9\5-|----------------------|----------------------------
-|------7-----------------|----------------------|----------------------------
-|------------------------|----------------------|----------------------------
-|------------------------|----------------------|----------------------------
 Interlude, guitar 3        Guitar 1 play riff 1 during interlude             

-|------------------------|------8-8-8------8-8-8-------8-8-8------8-8-8--|---
-|------------------------|-----------------------------------------------|---
-|------------------------|----9----------9----------10----------9--------|---
-|------------------------|-10---------10---------10----------10----------|---
-|------------------------|-----------------------------------------------|---
-|------------------------|-----------------------------------------------|---
 Verse, g.1. play riff1 2x  Verse, g.2.                         With Fill 1   

-|-0------|------8-8-8------8-8-8-------8-8-8------|--------------------------
-|---1----|----------------------------------------|--------------------------
-|-----0--|----9----------9----------10----------9-|--------------------------
-|--------|-10---------10---------10----------10---|--------------------------
-|--------|----------------------------------------|--------------------------
-|--------|----------------------------------------|--------------------------
 Fill 1                                                                       

-|-----|-1---0---1---0---1---0-----3---1--------------|---------------|-------
-|-----|-1---1---1---1---1---1-----3---1--------------|---------------|-------
-|--9--|-2---0---2---0---2---0-----4---2--------------|---------------|-------
-|-----|-3---2---3---2---3---2-----5---3---3-----3----|-3-3-3-3-3-3-3-|-------
-|-----|-----3-------3-------3-----5---3---3-----3----|-3-3-3-3-3-3-3-|-------
-|-----|---------------------------3---1---0h1---0h1--|-1-1-1-1-1-1-1-|-------
    <   Chorus G1(strum/arpeggiate)                                           

-|-----8------------8--------10-13-10-----8--------------------8------|-------
-|---8---8---8---8------8-------------8-----8-------8------------8--6-|-------
-|-9-------9---9------9----9------------9---------9---9--0--9---------|-------
-|---------------------------------------------10---------------------|-------
-|--------------------------------------------------------------------|-------
-|--------------------------------------------------------------------|-------
 Chorus, Guitar 2                                                             

-|-----------------------------------|-3------1------0-----|------------------
-|-6---6---6--6---------6--6---6---6-|-3------1------1-----|------------------
-|---9---9------9--0--9------9---9---|-0------2------0-----|------------------
-|-----------------------------------|-0------3------2-----|------------------
-|-----------------------------------|-2------3------3-----|------------------
-|-----------------------------------|-3------1------------|------------------
                                      Solo, Guitar 1(arpeggiate) 2x           

-|------------------------------------|--------------------------|------------
-|-8h10-13-12--13--10--12--8h10p8\5-5-|-8h10-13-12--15-13-12-10--|------------
-|------------------------------------|--------------------------|------------
-|------------------------------------|--------------------------|------------
-|------------------------------------|--------------------------|------------
-|------------------------------------|--------------------------|------------
 Guitar 2-Solo                                                                

-|-----------------|------------|--------------------------------|------------
-|-15-13-12-10\5-5-|-8h10-13-12-|-13---12---10---8---13---12---8-|------------
-|-----------------|------------|--------------------------------|------------
-|-----------------|------------|--------------------------------|------------
-|-----------------|------------|--------------------------------|------------
-|-----------------|------------|--------------------------------|------------
                                  <    <    <    <   <    <    <              

-|-----------------------------------------------------|----------------------
-|-----------------------------------------------------|----------------------
-|-4--4--4-4-4-2--2--2-2-2-5--5--5-5-5-5-5-5-5-5-5-5-5-|----------------------
-|-5--5--5-5-5-3--3--3-3-3-5--5--5-5-5-5-5-5-5-5-5-5-5-|----------------------
-|-5--5--5-5-5-3--3--3-3-3-3--3--3-3-3-3-3-3-3-3-3-3-3-|----------------------
-|-3--3--3-3-3-1--1--1-1-1-----------------------------|----------------------
  Solo, Guitar 3                           Play 2x                            
[ Tab from: http://www.guitaretab.com/p/pearl-jam/26797.html ]
-|--------------------------|-------------------------------------------------
-|--------------------------|-------------------------------------------------
-|-4--4--4-4-4-2------------|-------------------------------------------------
-|-5--5--5-5-5-3---3----3---|-------------------------------------------------
-|-5--5--5-5-5-3---3----3---|-------------------------------------------------
-|-3--3--3-3-3-1---0h1--0h1-|-------------------------------------------------
                                                                              

-|---------------------|-----0------|-1--0--1--0-----------1--0-------|-------
-|---------------------|-1-----1----|-1--1--1--1-----------1--1-------|-------
-|---------------------|---0--------|-2--0--2--0-----------2--0--4--2-|-------
-|---------------------|------------|-3--2--3--2-3-2-0-----3--2--5--3-|-------
-|---------------------|------------|----3-----3-------3-3----3--5--3-|-------
-|---------------------|------------|----------------------------3--1-|-------
 Verse, g.1.-riff 1 2x  Pre-ch. fill  Chorus, g.1.                            

-|-------------|-----8-----------8-------|----------------------------------|-
-|-------------|---8---8---8---8---8---8-|---6---6---6---6---6---6-----6---6|-
-|-----------x-|-9-------9---9-------9---|-9---9---9---9---9---9---0-9---9--|-
-|-3----3----x-|-------------------------|----------------------------------|-
-|-3----3----x-|-------------------------|----------------------------------|-
-|-0h1--0h1----|-------------------------|----------------------------------|-
                Chorus, g.2        3x                                         

-|-----------------------------------------------------------------|----------
-|-----------------------------------------------------------------|----------
-|-9--7--9--7--9--7-\5-/7-/10-\9--7--9--7--9--7--9--7-\5-/7-/10-\9-|----------
-|-----------------------------------------------------------------|----------
-|-----------------------------------------------------------------|----------
-|-----------------------------------------------------------------|----------
 Outro  p.h.      w/E.bow                                                     

-|----------------|-1--0--1--0--1--0------------|-----------------------------
-|----------------|-1--1--1--1--1--1------------|-----------------------------
-|----------------|-2--0--2--0--2--0------------|-----------------------------
-|----------------|-3--2--3--2--3--2------------|-----------------------------
-|----------------|----3-----3-----3------------|-----------------------------
-|----------------|-----------------------------|-----------------------------
  G.2.--Riff 1 2x  End-arpeggiate and fade out                                





pilate




Tabbed by: Brian Barnes (B.Barnes@worldnet.att.net)

standard tuning

            Talk of circles                   Punching Down
E---------------------------------------------------------------
B---------------------------------------------------------------
G-11-11-11--9--9--9---7--7----------11-11-11--12--12--12---7--7-  
D--0--0--0--0--0--0---0--0-----------0--0--0---0---0---0---0--0- 
A--9--9--9--7--7--7---5- 5-----------9--9--9--10--10--10---5--5-
E---------------------------------------------------------------


            Looking in Drawing                Circles Down
E---------------------------------------------------------------
B---------------------------------------------------------------
G-11-11-11--9--9--9---7--7----------11-11-11--12--12--12---7--7-
D--0--0--0--0--0--0---0--0-----------0--0--0---0---0---0---0--0-
A--9--9--9--7--7--7---5--5-----------9--9--9--10--10--10---5--5-
E---------------------------------------------------------------

E---------------------
B---------------------
G-10-10-10-10----4--4-
D--0--0--0--0----0--0-
A--8--8--8--8----2--2-
E---------------------

            Falling Off                   the south marking ground     
E----------------------------------------------------------------
B----------------------------------------------------------------
G-11-11-11--9--9--9---7--7------------11-11-11--12-12-12---7--7--
D--0--0--0--0--0--0---0--0-------------0--0--0---0--0--0---0--0--
A--9--9--9--7--7--7---5--5-------------9--9--9--10-10-10---5--5--
E----------------------------------------------------------------

            Talking out of turn            drawing circles down
E----------------------------------------------------------------
B----------------------------------------------------------------
G-11-11-11--9--9--9---7--7------------11-11-11--12-12-12---7--7--
D--0--0--0--0--0--0---0--0-------------0--0--0---0--0--0---0--0--
A--9--9--9--7--7--7---5--5-------------9--9--9--10-10-10---5--5--
E----------------------------------------------------------------

[chorus]

       Like pilate      I Have A Dog
E----------------------------------------------------------------
B----------------------------------------------------------------
G-----------3-3------------3-3-3------------3-3-3------------3-3-
D--5-5-5-5--3-3---5-5-5-5--3-3-3---5-5-5-5--3-3-3---5-5-5-5--3-3-
A--5-5-5-5--1-1---5-5-5-5--1-1-1---5-5-5-5--1-1-1---5-5-5-5--1-1-
E--3-3-3-3--------3-3-3-3----------3-3-3-3----------3-3-3-3------

      
       Like pilate     I Have A Dog
E----------------------------------------------------------------
B----------------------------------------------------------------
G-----------3-3------------3-3-3------------3-3-3------------3-3-
D--5-5-5-5--3-3---5-5-5-5--3-3-3---5-5-5-5--3-3-3---5-5-5-5--3-3-
A--5-5-5-5--1-1---5-5-5-5--1-1-1---5-5-5-5--1-1-1---5-5-5-5--1-1-
E--3-3-3-3--------3-3-3-3----------3-3-3-3----------3-3-3-3------


           Walk's me out of town             still one's a crowd   
E----------------------------------------------------------------
B----------------------------------------------------------------
G-11-11-11--9--9--9--7--7------------11-11-11--12-12-12---7--7---
D--0--0--0--0--0--0--0--0-------------0--0--0---0--0--0---0--0---
A--9--9--9--7--7--7--5--5-------------9--9--9--10-10-10---5--5---
E----------------------------------------------------------------

         Making angels in the dirt   looking up,looking all around
E----------------------------------------------------------------
B----------------------------------------------------------------
G-11-11-11--9--9--9--7--7------------11-11-11--12-12-12---7--7---
D--0--0--0--0--0--0--0--0-------------0--0--0---0--0--0---0--0---
A--9--9--9--7--7--7--5--5-------------9--9--9--10-10-10---5--5---
E----------------------------------------------------------------

       Like pilate      I Have a Dog
E----------------------------------------------------------------
B----------------------------------------------------------------
G-----------3-3------------3-3-3------------3-3-3------------3-3-
D--5-5-5-5--3-3---5-5-5-5--3-3-3---5-5-5-5--3-3-3---5-5-5-5--3-3-
A--5-5-5-5--1-1---5-5-5-5--1-1-1---5-5-5-5--1-1-1---5-5-5-5--1-1-
E--3-3-3-3--------3-3-3-3----------3-3-3-3----------3-3-3-3------

       Like pilate      I Have a Dog  
E----------------------------------------------------------------
B----------------------------------------------------------------
G-----------3-3------------3-3-3------------3-3-3------------3-3-
D--5-5-5-5--3-3---5-5-5-5--3-3-3---5-5-5-5--3-3-3---5-5-5-5--3-3-
A--5-5-5-5--1-1---5-5-5-5--1-1-1---5-5-5-5--1-1-1---5-5-5-5--1-1-
E--3-3-3-3--------3-3-3-3----------3-3-3-3----------3-3-3-3------

[Bridge]

E----------------------------------------------------------------
B----------------------------------------------------------------
G-11--(11)------------------------4-4-4--6-6-6--7-7-7------------
D--0------------------------------0-0-0--0-0-0--0-0-0--4-4--5-5--
A--9------------------------------2-2-2--4-4-4--5-5-5--0-0--0-0--
E------------------------------------------------------2-2--3-3--
 (hold)

  Stunned by my own reflection  It's lookin back,sees me to clearly
E----------------------------------------------------------------
B----------------------------------------------------------------
G----------------------------------------------------------------
D-----------------------------------1----------------------------
A-----------------------------------3----------------------------
E-----------------------------------3----------------------------

 And I swore I'd never go there again   Not unlike a friend that
E----------------------------------------------------------------
B----------------------------------------------------------------
G--4-4-4---6-6-6---7-7-7-----------------------------------------
D--0-0-0---0-0-0---0-0-0-----4-4--5-5------4-4--5---7-7----------
A--2-2-2---4-4-4---5-5-5-----0-0--0-0------0-0--0---0-0----------
E----------------------------2-2--3-3------2-2--3---5-5----------

  Politely drags you down, you down, you down, you down
E------------------------------------------------------
B------------------------------------------------------
G------------------------------------------------------
D--4-4--5--7-----9-10----------------------------------
A--0-0--0--0-----0--0----------------------------------
E--2-2--3--5-----7--8----------------------------------
*(this isn't accurate, but it is as close as I can get)

 (repeat chorus x2)

[outro]

E-------------------------------------------------------
B-------------------------------------------------------
G-11---12-12--7--7----4-4---6-6-------------------------
D--0----0--0--0--0----0-0---0-0-------------------------
A--9---10-10--5--5----2-2---4-4-------------------------
E-------------------------------------------------------
*(again not accurate, but close enough)





do the evolution




standard tuning

E---------------------|--------------------|--------------------|-------
B---------------0--4--|--------------0--4--|--------------0--4--|-------
G---4--4--4--4--0--3--|--4--4--4--4--0--3--|--4--4--4--4--0--3--|--4----
D---0--3--0--3--------|--0--3--0--3--------|--0--3--0--3--------|--0----
A---------------------|--------------------|--------------------|-------
E---------------------|--------------------|--------------------|-------
                                                                        

E------------------|----------------------------------------------------
B------------0--4--|----------------------------------------------------
G---4--4--4--0--3--|----------------------------------------------------
D---3--0--3--------|----------------------------------------------------
A------------------|----------------------------------------------------
E------------------|----------------------------------------------------


Repeat 7 times


Part 2

Play this part from  "I'm ahead, I'm a man, I'm the first mammal to wear pants yea"

E  |---------------------------------------------------------------
B  |---------------------------------------------------------------
G  |---------------------------------------------------------------
D  |----------5-8-5---------5-8-5----------------------------------
A  |--5-8-5-8-------5--8-5-8---------------------------------------
E  |---------------------------------------------------------------


Part 3

This part is the chorus:  "It's evolution, baby!"

E  |---------------------------------------------------------------
B  |---1--1--1-1---0--0--0-0---------------------------------------
G  |---3--3--3-3---2--2--2-1---------------------------------------
D  |---2--2--2-2---1--1--1-0---------------------------------------
A  |---3--3--3-3---2--2--2-1---------------------------------------
E  |---------------------------------------------------------------


Part 4

Play this part from after Ed says "..evolution baby"..until it switches
to the tune from Part 3

E  |---------------------------------------------------------------
B  |---------------------------------------------------------------
G  |---------------------------------------------------------------
D  |----------5-8-5---------5-8-5----------------------------------
A  |--5-8-5-8-------5--8-5-8---------------------------------------
E  |---------------------------------------------------------------


Part 5

This is where Ed say's "It's hurtin'..." but also when you repeat
it, Ed says "It's evolution..."

E  |---------------------------------------------------------------
B  |---1--1--1-1---0--0--0-0---------------------------------------
G  |---3--3--3-3---2--2--2-1---------------------------------------
D  |---2--2--2-2---1--1--1-0---------------------------------------
A  |---3--3--3-3---2--2--2-1---------------------------------------
E  |---------------------------------------------------------------

Repeat this part once


Part 6
E  |----------------------------------------------------5----10~---
B  |----------------------------------------------------6----10~---
G  |----------------------------------------------------6----10~---
D  |----------------------------------------------------6----------
A  |--8--55555--8--55555--7--33333--5-8-3-1-1--8-5-7-5--5----------
E  |----------------------------------------------------5----------


Use your wah-wah pedal for this part
Repeat this part twice, but disregard the last part for when you repeat


Part 7

This part is the chorus:  "It's evolution, baby!"

E  |---------------------------------------------------------------
B  |---1--1--1-1---0--0--0-0---------------------------------------
G  |---3--3--3-3---2--2--2-1---------------------------------------
D  |---2--2--2-2---1--1--1-0---------------------------------------
A  |---3--3--3-3---2--2--2-1---------------------------------------
E  |---------------------------------------------------------------


Part 8

Play this part from after Ed says "..evolution baby"..until it
switches to the tune from Part 7

E  |---------------------------------------------------------------
B  |---------------------------------------------------------------
G  |---------------------------------------------------------------
D  |----------5-8-5---------5-8-5----------------------------------
A  |--5-8-5-8-------5--8-5-8---------------------------------------
E  |---------------------------------------------------------------


Part 9

E  |---------------------------------------------------------------
B  |--15~~--13~~--12~~--10~~----15~~--13~~--12~~--15~~-------------
G  |---------------------------------------------------------------
D  |---------------------------------------------------------------
A  |---------------------------------------------------------------
E  |---------------------------------------------------------------


Part 10

E  |----------------------------------------------------5---10~----
B  |----------------------------------------------------6---10~----
G  |----------------------------------------------------6---10~----
D  |----------------------------------------------------6----------
A  |--8--55555--8--55555--7--33333--5-8-3-1-1--8-5-7-5--5----------
E  |----------------------------------------------------5----------


Repeat this part once, but only use the last part the second time


Part 11

This part is the chorus:  "It's evolution, baby!"

E  |---------------------------------------------------------------
B  |---1--1--1-1---0--0--0-0---------------------------------------
G  |---3--3--3-3---2--2--2-1---------------------------------------
D  |---2--2--2-2---1--1--1-0---------------------------------------
A  |---3--3--3-3---2--2--2-1---------------------------------------
E  |---------------------------------------------------------------

This is the last part until the solo


Part 12 (Guitar #1)

E  |---------------------------------------------------------------
B  |---------------------------------------------------------------
G  |---------------------------------------------------------------
D  |----------5-8-5---------5-8-5----------------------------------
A  |--5-8-5-8-------5--8-5-8---------------------------------------
E  |---------------------------------------------------------------

Play throughout until Part 14


Part 12 (Guitar #2, solo)
Start this guitar after Guitar #1 finishes that riff once

E  |---------------------------------------------------------------
B  |---------------------------------------------------------------
G  |---------------------------------------------------------------
D  |---------------------------------------------------------------
A  |---------------------------------------------------------------
E  |---------------------------------------------------------------

I obviously have not found a solo...if you have it...email me!


Part 13

Play this part from after the solo is completed.

E  |---------------------------------------------------------------
B  |---------------------------------------------------------------
G  |---------------------------------------------------------------
D  |----------5-8-5---------5-8-5----------------------------------
A  |--5-8-5-8-------5--8-5-8---------------------------------------
E  |---------------------------------------------------------------


Play this part until the tune switches again.


Part 14

E  |---------------------------------------------------------------
B  |---1--1--1-1---0--0--0-0---------------------------------------
G  |---3--3--3-3---2--2--2-1---------------------------------------
D  |---2--2--2-2---1--1--1-0---------------------------------------
A  |---3--3--3-3---2--2--2-1---------------------------------------
E  |---------------------------------------------------------------


Repeat this part twice, then play Part 15 until the end.


Part 15

Play this part until the end of the song.

E  |---------------------------------------------------------------
B  |---------------------------------------------------------------
G  |---------------------------------------------------------------
D  |----------5-8-5---------5-8-5----------------------------------
A  |--5-8-5-8-------5--8-5-8---------------------------------------
E  |---------------------------------------------------------------





'the color red'



Transcribed by: Evan Cowan
Email: icowan@marin.k12.ca.us

Steel drums arranged for guitar
This is from memory, so don't hold me to it

-|----------------------------------------|-----------------------------------
-|-17----14--15----17-17-17--17-14--15----|-----------------------------------
-|-14----12--11----14-14-14--14-12--11----|-----------------------------------
-|----------------------------------------|-----------------------------------
-|----------------------------------------|-----------------------------------
-|----------------------------------------|-----------------------------------
                                   repeat as neccessary...                    



mfc

Transcribed by: Chris Wilson
Email: yokel@zip.com.au

Where i've got mike down the bottom he comes in with that
where i say 'listen to Cd' in stones solo.

-|----------------------------------------|---------------------------------|-
-|---------3-----3--3--3------------------|---------3-----3--3--3--3-----3--|-
-|----0----0--0--0--0--0--0---0--5-4-0-0--|----0----0--0--0--0--0--0--0--0--|-
-|--5---5-----5-------------5-------------|--5---5-----5--------------5-----|-
-|----------------------------------------|---------------------------------|-
-|----------------------------------------|---------------------------------|-

   Intro Ed         3x                                                        

-|-----------------------------------|----------------------------------|-----
-|-----------------------------------|--8--8\3--------------------------|-----
-|-----------------------------------|---------5--7--5h7p5p0------------|-----
-|--5--5--5--5--5--5--5--5--5--5--5--|------------------------5--7------|-----
-|-----------------------------------|----------------------------------|-----
-|-----------------------------------|----------------------------------|-----

  Mike    heavy palm mute              Stone                                  

-|----------------|--------------------|--------3---------|---------------|---
-|----------------|--3-3-3-3---3-3-----|----------3---3---|---------------|---
-|----------2--2--|--2-2-2-2b-r2-2--0--|-----2------0---0-|---------------|---
-|--3----3--3--3--|--0-0-0-0---0-0--0--|-*3--3------------|---------------|---
-|--3----3--3--3--|--------------------|--3--3------------|---------------|---
-|-*1----1--1--1--|--------------------|--1--1------------|---------------|---

   Verse Ed       3x                     Ed                                   


   *When Ed Plays F Jeff Plays G, And When Ed Plays G Jeff Plays F            

-|-----------------|--1-1-1-1-1-1-1--|-----------------|--1-1-1-1-1-1-1--|----
-|-----------------|--1-1-1-1-1-1-1--|-----------------|--1-1-1-1-1-1-1--|----
-|--3-3-3-3-3-3-3--|--2-2-2-2-2-2-2--|--3-3-3-3-3-3-3--|--2-2-2-2-2-2-2--|----
-|--3-3-3-3-3-3-3--|--3-3-3-3-3-3-3--|--3-3-3-3-3-3-3--|--3-3-3-3-3-3-3--|----
-|--1-1-1-1-1-1-1--|-----------------|--1-1-1-1-1-1-1--|-----------------|----
-|-----------------|-----------------|-----------------|-----------------|----

  Chorus Ed and Mike                                                          

-|-----------------|-----------------|-----------------|-----------------|----
-|-----------------|-----------------|-----------------|-----------------|----
-|--3-3-3-3-3-3-3--|-----------------|--3-3-3-3-3-3-3--|--3-3-3-3-3-3-3--|----
-|--3-3-3-3-3-3-3--|--3-3-3-3-3-3-3--|--3-3-3-3-3-3-3--|--3-3-3-3-3-3-3--|----
-|--1-1-1-1-1-1-1--|--3-3-3-3-3-3-3--|--1-1-1-1-1-1-1--|--1-1-1-1-1-1-1--|----
-|-----------------|--1-1-1-1-1-1-1--|-----------------|-----------------|----

  Stone                                                                       

-|---------------------------|---------|---------|----------------------------
-|---------------------------|--1-1-1--|---------|----------------------------
-|--3-3-3-3-3-3-3-3-3-3-3-3--|--0-0-0--|--5-5-5--|----------------------------
-|--3-3-3-3-3-3-3-3-3-3-3-3--|--2-2-2--|--5-5-5--|----------------------------
-|--1-1-1-1-1-1-1-1-1-1-1-1--|--3-3-3--|--3-3-3--|----------------------------
-|---------------------------|---------|---------|----------------------------

  All Gtrs.                   Stone      Ed and Mike                          

-|----------------------------------|------------------------------|----------
-|---------3-----3-3----------------|---------3-----3-3-3-3-----3--|----------
-|----0----0---------0---0-5-4-0-0--|----0----0--0--0-0-0-0--0--0--|----------
-|--5---5-----5--------5------------|--5---5-----5-----------5-----|----------
-|----------------------------------|------------------------------|----------
-|----------------------------------|------------------------------|----------

   Post-Chorus (intro) Ed      alternate between the two                      

-|-------------------------------------|--------------------------------------
-|-------------------------------------|--------------------------------------
-|-------------------------------------|--------------------------------------
-|---5--5--5--5--5--5--5--5--5--5--5---|--------------------------------------
-|-------------------------------------|--------------------------------------
-|-------------------------------------|--------------------------------------

   Mike      heavy PM                                                         

-|--3----3-------------3-------------------------------------------|----------
-|--3----3-------------3-------------------------------------------|----------
-|--5b7--5b7r5p4--5-4--5b7r5p4--5-4--2-0-------0--0-5-4-0-2b4--r2--|----------
-|---------------------------------------2-3-5---------------------|----------
-|-----------------------------------------------------------------|----------
-|-----------------------------------------------------------------|----------

  Stone                                                                       

-|--------------------------|-----------------------|-------------------------
-|--------------------------|-----------------------|-------------------------
-|--5-4-5-4-5-4-5-4-5-4-----|--5-7-5-7-5-7-5-7-5-7--|-------------------------
-|--------------------------|-----------------------|-------------------------
-|--------------------------|-----------------------|-------------------------
-|--------------------------|-----------------------|-------------------------

  Pre-Chorus Fill By Stone    Chorus Fills By Stone                           

-|----------------------------------------------------|-----------------------
-|---10b12--12r10--8h10p8-----------------------------|-----------------------
-|------------------------9---------------------------|-----------------------
-|--------------------------10h12-10h12p10\9-7-9-/12--|-----------------------
-|----------------------------------------------------|-----------------------
-|----------------------------------------------------|-----------------------

  Stone Solo                                                                  

-|-------------------------------------------------------|--------------------
-|-------------------------------------------------------|--------------------
-|--2p0-0---2p0---2p0--0---0--2p0---2p0--0---0--2p0-0----|--------------------
-|--------0-----0--------0--------0--------0----------0--|--------------------
-|-------------------------------------------------------|--------------------
-|-------------------------------------------------------|--------------------

  *Listen to Cd                                                               

-|----------------------|-----------------------------------------------------
-|----------------------|-----------------------------------------------------
-|----2---2---4--5/7\5--|-----------------------------------------------------
-|--0---0---0-----------|-----------------------------------------------------
-|----------------------|-----------------------------------------------------
-|----------------------|-----------------------------------------------------

                                                                              
-|------------------------------------------------|---------------------------
-|------------------------------------------------|---------------------------
-|------------------------------------------------|---------------------------
-|---3b4--0---3b4--0---3b4--5--7--5--3--0--3--0---|---------------------------
-|------------------------------------------------|---------------------------
-|------------------------------------------------|---------------------------

                                                                              
-|-----------------------------|----------------------------------------------
-|--3-----3-----------------8--|----------------------------------------------
-|--5b7-7---5b7-7-7-7-7b9r7----|----------------------------------------------
-|-----------------------------|----------------------------------------------
-|-----------------------------|----------------------------------------------
-|-----------------------------|----------------------------------------------

   Hold Bend----------|                                                       

-|-------------------------------------|--------------------------------------
-|---3--3--3--3--3--3--3--3--3--3--3---|--------------------------------------
-|---0--0--0--0--0--0--0--0--0--0--0---|--------------------------------------
-|---5--5--5--5--5--5--5--5--5--5--5---|--------------------------------------
-|-------------------------------------|--------------------------------------
-|-------------------------------------|--------------------------------------

   *Mike   (strum till end)                                                   




low light




Intro/Verse:

E----------3---------------------0-3-|
B----------0---------------------1-0-|
G-0-0------0-------------0-0-----0-0-|
D-2-0-0-0--0-------------2-0-0-2-2-0-|
A-3-2-0-0--2-------------3-2-0-2-3-2-|
E-----3-2--3-----------------2-0---3-|

      A                       B

(play part A a few times, then when the lyrics start, play part B)

Chorus:

D Em

Play near the end:

E---------------------------------------2-|
B---------------------------------------3-|
G-----0-----0-----2-----0-----0-----0---2-|
D---2-----0-----2-----0-----2-----0-----0-|
A-3-----2-----0-----2-----3-----2---------|
E-----------------------------------------|
Transcribed by Edward Glowinski - mnjglow@concentric.net 



in hiding




Problems? Email brainofj@iname.com
 
This one is a little strange to read in parts (and a little rough around
the edges) but I am about 98% sure it's right.  As long as you can get the
strumming pattern and timing down it is a fairly simple song to play. 

Standard Tuning

Legend 

X   = Rake strings 
(*) = Your finger is on that string/fret but it is not played.
h   = hammer
/   = slide

Intro

E-------------------3-3-2-2-3-2---------------
B------2-2-2-2-3----3-3-3-3-3-3---------------
G------2-2-2-2-2----2-2-2-2-2-2---------------
D------2-2-2-2-2------------------------------
A---------------------------------------------
E---------------------------------------------

Alternate Intro.  Some people have suggested this as the intro.  
Either one sounds fine.

E--------------------------------------------
B-----5-5-5-5-5-----10-10-10-10-10-10--------
G-----6-6-6-6-7-----12-12-12-11-12-11--------
D-----7-7-7-7-7-----12-12-12-12-12-12--------
A-----0-0-0-0-0------------------------------
E--------------------------------------------
       
Once Ed starts singing you do this.  The D chord is just slid up and
down the neck with emphasis on the E string notes. (we'll call this 
segment 2 for later reference...)

E-----2--------2--3--5----8--7------8--7------------2-------
B-----3-------(3)(3)(5)--(8)(8)----(8)(8)---8-------3-------
G-----2-------(2)(2)(4)--(7)(7)----(7)(7)-----7-----2-------
D-----------------------------------------------------------
A-----------------------------------------------------------
E-----------------------------------------------------------
 "I shut and lock the front door.......no way in or out......."


E-----2---3--2--0-----0--2------3--2--0-----0--2--------2-2-2-2-2-
B-----3------------3-------1-------------3--------0-----3-3-3-3-3-
G-----2-------------------------------------------------2-2-2-2-2-
D-----------------------------------------------------------------
A-----------------------------------------------------------------
E-----------------------------------------------------------------
          "A nothing sound...............nothing sound....."



 "I swallow my words to keep from lying...."
E--------------------------------------------------------
B------2-------------------------------------------------
G------2------0------------------------------------------
D------2-------------0--------3-3-X-X-3---3-3-X-X-3-3----
A-----------------------------3-3-X-X-3---3-3-X-X-3-3----
E----------3-----3-2----0-----1-1-X-X-1-0-1-1-X-X-1-1-0--


 "I swallow my fist just to keep from biting......"
E--------------------------------------------------------
B------2-------------------------------------------------
G------2------0------------------------------------------
D------2-------------0--------3-3-X-X-3---3-3-X-X-3-3----
A-----------------------------3-3-X-X-3---3-3-X-X-3-3----
E----------3-----3-2----0-----1-1-X-X-1-0-1-1-X-X-1-1-0--


 "I swallow my breath and went deep i was diving..."
E--------------------------------------------------------
B------2-------------------------------------------------
G------2------0------------------------------------------
D------2-------------0--------3-3-X-X-3---3-3-X-X-3-3----
A-----------------------------3-3-X-X-3---3-3-X-X-3-3----
E----------3-----3-2----0-----1-1-X-X-1-0-1-1-X-X-1-1-0--


 "i surfaced when all of my being was enlightened.........now i'm....."
E---------------------------------------------------------------0-
B------2--------------------------------------------------------0-
G------2------0-------------------------------------------------0-
D------2--------------0-------3-3-X-X-3---3-3-X-X-3-3-------2-----
A-----------------------------3-3-X-X-3---3-3-X-X-3-3-------2-----
E----------3-----3-2----0-----1-1-X-X-1-0-1-1-X-X-1-1-0-----------
       

Chorus (Just like the intro)

E-------------------3-3-2-2-3-2---------------
B------2-2-2-2-3----3-3-3-3-3-3---------------
G------2-2-2-2-2----2-2-2-2-2-2---------------
D------2-2-2-2-2------------------------------
A---------------------------------------------
E---------------------------------------------
       
 "i'm...............I'm in hiding......."


After the 1st chorus one guitar does this while the other continues 
segment 2.  

E-------5-----5--3--2--3---2-h-3-/-5----5-2-3-2------
B-----------------------------------------------3----
G----------------------------------------------------
D----------------------------------------------------
A----------------------------------------------------
E----------------------------------------------------

E-------5-----5--3--2--3---2-h-3-/-5-------------------
B---------------------------------------3-h-5-/-7-8-7--
G------------------------------------------------------
D------------------------------------------------------
A------------------------------------------------------
E------------------------------------------------------

In Hiding 

I shut and lock the front door, no way in or out 
I turned and walked the hallway and pulled the curtains down 
I knelt and emptied the mouth of every plug around 
A nothing sound.... nothing sound... 

I stayed when my last step left me, ignored all my rounds 
Soon I was seeing visions and cracks along the walls 
They're upside down 

I swallow my words to keep from lying 
I swallow my fist just to keep from biting,  I,  I... 
I swallowed my breath and went deep, I was diving, diving... 
I surfaced when all of my being was enlightened 

Now....I'm...Iím in hiding 
I'm in hiding (x3) 

It's been about three days now since I've been aground 
No longer overwhelmed and it seems so simple now 
It's funny when things change so much 
It's all state of mind 

I swallowed my words to keep from lying 
I swallowed my fist just to keep from biting, I, I... 
I swallowed my breath and went deep, I was diving, I was diving...
I surfaced and all of my being was enlightened 

Now I'm...Iím in hiding, yeah 
I'm in hiding (x7) 





push me, pull me



Tabbed by brainofj@iname.com

Standard Tuning

h = hammer
p = pull off


Chorus (Not the accurate number of strums)

"push me pull me.........or just just pull me out.........."
E------------------------------------------------------------------------
B-----------------------------3-3-3-3-3-3-3-3-3--------------------------
G-----------------------------2-2-2-2-2-2-2-2-2--2-2-2-2-2-2-2-2-2-2-2---
D-----4--4-4-4-4-4-4-4-4-4-4--0-0-0-0-0-0-0-0-0--2-2-2-2-2-2-2-2-2-2-2---
A-----4--4-4-4-4-4-4-4-4-4-4---------------------0-0-0-0-0-0-0-0-0-0-0---
E-----2--2-2-2-2-2-2-2-2-2-2---------------------------------------------


"If I behave, could you arrange a spacious hole in the ground"
E-----------------------------------------------------------------
B-----------------------------------------------------------------
G-----------------------------------------------------------------
D-------------------0-h-2--------------------0-h-2----------------
A--------0-h-2-p-0----------------0-h-2-p-0-----------------------
E-----0------------------------0----------------------------------





all those yesterdays



Transcribed by: Evan Cowan
Email: icowan@marin.k12.ca.us

-|-------------------|-------------------|-------------------|----------------
-|-----1---------1---|------3--------5---|-----1---------1---|----------------
-|---2-----------1---|------3--------5---|---2-----------1---|----------------
-|-3-----3p0---2---2-|----3---3----5---2-|-3-----3p0---2---2-|----------------
-|-----------3-------|-/5-------/7-------|-----------3-------|----------------
-|-------------------|-------------------|-------------------|----------------
 Guit.1, play 24x     Chorus, Guit.1                                          

-|-------------------|------------------|------|------------------|------|----
-|------3--------5---|-----6--------8---|----6-|-----6--------8---|----6-|----
-|------3--------5---|---7---7----9---9-|------|---7---7----9---9-|----5-|----
-|----3---3----5---2-|-8-------10-------|------|-8-------10-------|----7-|----
-|-/5-------/7-------|------------------|-8----|------------------|-8--8-|----
-|-------------------|------------------|------|------------------|------|----
                     Chorus, guit.2                                           

-|-------------------|-----------|------------------|---------------------|---
-|-----1---------1---|---1----1--|-----3--------5---|-----1-----------1---|---
-|---2-----------1---|---2----1--|-----3--------5---|---2---2---------1---|---
-|-3-----3p0---2---2-|-----------|---3---3----5---5-|-3-------3p0---2---2-|---
-|-----------3-------|-----------|-5-------/7-------|-------------3-------|---
-|-------------------|-----------|------------------|---------------------|---
 2nd verse, guit.1,-8x Guit.2-8x  2nd Chorus, guit.1                          

-|------------------|------------------|-------5-----|------------------|-----
-|-----3--------5---|-----6--------8---|---------6---|-----6--------8---|-----
-|-----3--------5---|---7---7----9---9-|-----------5-|---7---7----9---9-|-----
-|---3---3----5---5-|-8-------10-------|-------------|-8-------10-------|-----
-|-5-------/7-------|------------------|-8--8--------|------------------|-----
-|------------------|------------------|-------------|------------------|-----
                     2nd Chorus, Guit.2                                       

-|--5--|--------------------|-----------------------------|-------------------
-|--6--|-----1---------1----|-----------------------------|-------------------
-|-----|---2-----------1----|-----2---------3-------------|-------------------
-|-----|-3-----3p0---2---2--|-------------3-----------6---|-------------------
-|-----|-----------3--------|---3---3-3/5-----5/6---6-----|-------------------
-|-----|--------------------|-1-------------------4-----0-|-------------------
        Interlude, Guit.1-6  Outro, Guitar 1+2-repeat simile 10x              

-|-----------------------------|----------------------------------------------
-|-----------------------------|----------------------------------------------
-|-----2---------3-------------|----------------------------------------------
-|-------------3-----------6---|----------------------------------------------
-|---3---3-3/5-----5/6---6-----|----------------------------------------------
-|-1-------------------4-----0-|----------------------------------------------
 Solo, Guitar 2-repeat till end  Solo, Guitar 1                               

-|--------------------------------------------|----------------------------|--
-|--------------------------------------------|----------------------------|--
-|-10-10-13-10-13-13b15-13-10--10-10-------10-|-10-13-10-13-13b15-13-10-13-|--
-|-----------------------------------10-13----|----------------------------|--
-|--------------------------------------------|----------------------------|--
-|--------------------------------------------|----------------------------|--
                                                                              

-|--------------------------------------|-------------------------------|-----
-|--------------------------------------|-------------------------------|-----
-|-------10-13--10-13b14r13-------10-13-|-10-10-13-10-13-13b15-13-10-13-|-----
-|-10-13--------------------10-13-------|-------------------------------|-----
-|--------------------------------------|-------------------------------|-----
-|--------------------------------------|-------------------------------|-----
                                                                              

-|------------------------------------------------------------|---------------
-|------------------------------------------------------------|---------------
-|-------10-13--10-13b14r13-------10-13--10-13-13/17-17-17-17-|---------------
-|-10-13--------------------10-13-----------------------------|---------------
-|------------------------------------------------------------|---------------
-|------------------------------------------------------------|---------------
                                                                              

-|----------------|--------------------------------------|--------------------
-|----------------|--------------------------------------|--------------------
-|-17/20-20-20-20-|-------10-13--10-13b14r13-------10-13-|--------------------
-|----------------|-10-13--------------------10-13-------|--------------------
-|----------------|--------------------------------------|--------------------
-|----------------|--------------------------------------|--------------------
                                                                              

-|--------------------------------------------|-------------------------|-----
-|--------------------------------------------|-------------------------|-----
-|-10-10-13-10-13-13b15-13-10-13--------10-13-|-10-13b14r13-------10-13-|-----
-|--------------------------------10-13-------|-------------10-13-------|-----
-|--------------------------------------------|-------------------------|-----
-|--------------------------------------------|-------------------------|-----
                                                                              

-|--------------------------------------------------------------------------|-
-|----------------------------------------------------/21-18----18--18--18\-|-
-|-10-13-13/17-17-17-17-17/20-20-20-20-20/22-22-22-22--------20-------------|-
-|--------------------------------------------------------------------------|-
-|--------------------------------------------------------------------------|-
-|--------------------------------------------------------------------------|-
Related for Yield tab