Song name
# A B C D E F G H I J K L M N O P Q R S T U V W X Y Z

Pearl Jam - Do The Evolution tab

#----------------------------------PLEASE NOTE--------------------------------#
#This file is the author's own work and represents their interpretation of the#
#song. You may only use this file for private study, scholarship, or research.#
#-----------------------------------------------------------------------------#
#-- File created with Instab - http://www.pconline.com/~smcarey/instab.html --#
#-----------------------------------------------------------------------------#

Author/Artist: Pearl Jam
Title: Do The Evolution

b bend
p pull off
/ slide up
\ slide down

-----|---------------|--|-----------------------------------------|-----------|
-----|------------4--|--|----x-x--x-x--x--x--x--x-x------------4--|-----------|
-----|-4----------3--|--|----3b3b-3b3b-2--2--1--1-1p0----------3--|-----------|
-----|-5--3---3-5-5--|--|----2-2--2-2--1--1--0--0-0----3---3-5-5--|-----------|
-----|-5----5--------|--|-3------------------------------5--------|-----------|
-----|---------------|--|-----------------------------------------|-----------|
   Intro/Verse            Chorus

-----|--------------------------------------------------------------------0---|
-----|--------------------------------------------------------------------3---|
-----|--------------------------------------------------------------------2---|
-----|-3b--0-0--0--0-3b--0-0--0--0-2b--0----------0-2---------3b--0-2b-0--0---|
-----|-----------------------------------3--3---3-----3-1--0------------------|
-----|------------------------------------------------------------------------|
   Bridge

--------------------------------------|--|------|-----------------------------|
-/-15-15-15-15-15-15-15---15-15-15\---|--|------|-----------------------------|
-/-14-14-14-14-14-14-14---14-14-14\---|--|------|-----------------------------|
---0--0--0--0--0--0--0----0--0--0-----|--|------|-----------------------------|
--------------------------------------|--|------|-----------------------------|
--------------------------------------|--|------|-----------------------------|
                                           Pt.1

---------|--------------------------------------------------------------------|
---------|----15----15----15----15----15----15----15----15----15----15----15--|
---------|-16----16----16----16----15----15----15----15----14----14----14-----|
---------|--------------------------------------------------------------------|
---------|--------------------------------------------------------------------|
---------|--------------------------------------------------------------------|
            "Hallelujah"

--------------------------------------0--------0-------0-------0------0---|---|
----15----15----15----15----15--------3------x---3---x---3---x--3---x-----|---|
-14----12----12----12----12-----------2------x-----2-x-----2-x----2-x-----|---|
--------------------------------------0------x-------x-------x------x---0-|---|
--------------------------------------------------------------------------|---|
--------------------------------------------------------------------------|---|
Tap to rate this tab
 
# A B C D E F G H I J K L M N O P Q R S T U V W X Y Z