Song name
# A B C D E F G H I J K L M N O P Q R S T U V W X Y Z

Pearl Jam - Yield tab

#----------------------------------PLEASE NOTE--------------------------------#
#This file is the author's own work and represents their interpretation of the#
#song. You may only use this file for private study, scholarship, or research.#
#-----------------------------------------------------------------------------#
#-- File created with Instab - http://www.pconline.com/~smcarey/instab.html --#
#-----------------------------------------------------------------------------#

Author/Artist: Pearl Jam
Title: Yield Album

p pull off
h hammer on
/ slide up
\ slide down
v vibrato
m mute

Brain of J
Standard Tuning


----|------------|---------------------------------------------------------|--|
----|------------|---------------------------------------------------------|--|
----|-4-4-3-3----|-4-4-4-3-3-3-2--2-2-4-3-4----4-4-4-3-3-3-2--2-2-2-2-2-2--|--|
----|-4-4-3-3----|-4-4-4-3-3-3-2--2-2-4-3-4-0--4-4-4-3-3-3-2--2-2-2-2-2-2--|--|
----|-2-2-1-1----|-2-2-2-1-1-1-0--0-0-2-1-2-0--2-2-2-1-1-1-0--0-0-0-0-0-0--|--|
----|------------|--------------------------0------------------------------|--|
     Intro G1

----|-------------------------------------------------------|-----------------|
----|----------------------3--------------------------------|-----------------|
----|-4-4-4-3-3-3-2--2-2-4-2-4-2-4-4-4-3-3-3-2--2-2-2-2-2-2-|-----------------|
----|-4-4-4-3-3-3-2--2-2-4-0-4-2-4-4-4-3-3-3-2--2-2-2-2-2-2-|-----------------|
----|-2-2-2-1-1-1-0--0-0-2---2-0-2-2-2-1-1-1-0--0-0-0-0-0-0-|-----------------|
----|-------------------------------------------------------|-----------------|
     Intro Pt.2 G1

----|----------------------------------------------|--------------------------|
----|----------------------------------------------|--------------------------|
----|----------------------------------------------|--------------------------|
----|----------------------------------------------|--------------------------|
----|----------------------5-----------------------|--------------------------|
----|-7-7-7-6-6-6-5--5-5-7---7-5--7-7-7-6-6-6-5----|--------------------------|
     Intro/Verse G2

----|----------------------------------------------------|--------------------|
----|----------------------------------------------------|--------------------|
----|----------------------------------------------------|--------------------|
----|-10-------6-------3-------10-------6-------8--------|--------------------|
----|-10-------6-------3-------10-------6-------8--------|--------------------|
----|-8--------4-------1-------8--------4-------6--------|--------------------|
    "The .....soon...world....The......soon....world"  Chorus Strum

----|--------------------------------------------------------------|------|---|
----|--------------------------------------------------------------|------|---|
----|-7---------------7h9p7---5--7------7h9p7---6--7---------------|------|---|
----|-9---------------------9-------7---------9--------------------|------|---|
----|-9------------------------------------------------------------|------|---|
----|--------------------------------------------------------------|------|---|
      Interlude                                        G D           solo



Faithful
Standard Tuning



----|-3--3--3-3-3---3---3--3-3-6--5--5--5-5-5--5---5--5-5-7--3--3--3-3-3------|
----|-1--1--1-1-1---1---1--1-1-4--3--3--3-3-3--3---3--3-3-3--1--1--1-1-1------|
----|-2--2--2-2-2---2---2--2-2-5--4--4--4-4-4--4---4--4-4-4--2--2--2-2-2------|
----|-------------------------------------------------------------------------|
----|-------------------------------------------------------------------------|
----|-------------------------------------------------------------------------|
     Intro

-3---3--3-3-6--5--5--5-5-7--5--5---|------------------------------------------|
-1---1--1-1-4--3--3--3-3-3--3--3---|------------------------------------------|
-2---2--2-2-5--4--4--4-4-4--4--4---|------------------------------------------|
-----------------------------------|------------------------------------------|
-----------------------------------|------------------------------------------|
-----------------------------------|------------------------------------------|


----|-3--3--3-3-3---3---3--3-3-6--5--5--5-5-7--5--5---5--5-5-|----------------|
----|-1--1--1-1-1---1---1--1-1-4--3--3--3-3-3--3--3---3--3-3-|----------------|
----|-2--2--2-2-2---2---2--2-2-5--4--4--4-4-4--4--4---4--4-4-|----------------|
----|--------------------------------------------------------|----------------|
----|--------------------------------------------------------|----------------|
----|--------------------------------------------------------|----------------|
     Verse

----|--------------6-6--6-6--0--|--|------------------------------------------|
----|--------------6-6--6-6--0--|--|------------------------------------------|
----|--------------7-7--7-7--4--|--|------------------------------------------|
----|--------------8-8--8-8--5--|--|------------------------------------------|
----|--------------8-8--8-8--5--|--|------------------------------------------|
----|-8b9r8--6--3--6-6--6-6--3--|--|------------------------------------------|
    Bridge

----|----------------------------------------------------|--------------------|
----|----------------------------------------------------|--------------------|
----|-5---4-4---5---4-4-/-12vvv\-5--5-5--5-5--7\-4-4--4--|--------------------|
----|-5---5-5---5---5-5----------5--5-5--5-5--7\-5-5--5--|--------------------|
----|-3---5-5---3---5-5----------3--3-3--3-3--5\-5-5--5--|--------------------|
----|----------------------------------------------------|--------------------|


----|----------------------------------------------------------|--------------|
----|----------------------------------------------------------|--------------|
----|-5---4-4---5---4-4-/-12vvv\-5--5-5--5-5-------------------|--------------|
----|-5---5-5---5---5-5----------5--5-5--5-5-/17-17-15---------|--------------|
----|-3---5-5---3---5-5----------3--3-3--3-3-----------17p15-\-|--------------|
----|----------------------------------------------------------|--------------|
     Chorus

----|----------------------------------------------------|--------------------|
----|----------------------------------------------------|--------------------|
----|-5---4-4---5---4-4-/-19vvv\-5--5-5--5-5--7\-4-4--4--|--------------------|
----|-5---5-5---5---5-5----------5--5-5--5-5--7\-5-5--5--|--------------------|
----|-3---5-5---3---5-5----------3--3-3--3-3--5\-5-5--5--|--------------------|
----|----------------------------------------------------|--------------------|


----|----------------------------------------------------------|--------------|
----|----------------------------------------------------------|--------------|
----|-5---4-4---5---4-4-/-19vvv\-5--5-5--5-5-------------------|--------------|
----|-5---5-5---5---5-5----------5--5-5--5-5-/17-17-15---------|--------------|
----|-3---5-5---3---5-5----------3--3-3--3-3-----------17p15-\-|--------------|
----|----------------------------------------------------------|--------------|


----|-------------------------------------------------------------------------|
----|-------------------------------------------------------------------------|
----|-3--3-3-------------5--5-5-----------------------------------------------|
----|-3--3-3-------------5--5-5-5--5-5--5--5-5-5-5--5--5-5--5--5-5-5-5-7b8r7--|
----|-1--1-1-1-3b4r3-1---3--3-3-----------------------------------------------|
----|------------------3------------------------------------------------------|
     Mid riff

------------------------------------------------------------------------------|
------------------------------------------------------------------------------|
----8--8-8-----------10--10-10------------------------------------------------|
-7--8--8-8--7b8r7-7--10--10-10--5--5-5--5--5-5-5-5--5--5-5--5--5-5-5-5--------|
----6--6-6-----------8---8--8------------------------------------------3b4r3--|
------------------------------------------------------------------------------|


------------------------------------------------------------------------------|
------------------------------------------------------------------------------|
-----3--3-3------------5--5-5-------------------------------------------------|
-----3--3-3------------5--5-5--5--5-5--5--5-5-5-5--5--5-5--5--5-5-5-5-7b8r7---|
-1---1--1-1--3b4r3-1---3--3-3-------------------------------------------------|
---3-----------------3--------------------------------------------------------|


--------------------------------------------------------------6-6--6-6-----|--|
--------------------------------------------------------------6-6--6-6-----|--|
----8--8-8----------10--10-10---------------------------------7-7--7-7-----|--|
-7--8--8-8--7b8r7-7-10--10-10--5--5-5--5--5-5-5-5-------------8-8--8-8--5--|--|
----6--6-6----------8---8--8-----------------------3b4r3-1----8-8--8-8--5--|--|
-----------------------------------------------------------3--6-6--6-6--3--|--|


-----|------|--------|-------|------------------------------------------------|
-----|------|--------|-------|------------------------------------------------|
-----|------|--------|-------|------------------------------------------------|
-----|------|--------|-------|------------------------------------------------|
-----|------|--------|-------|------------------------------------------------|
-----|------|--------|-------|------------------------------------------------|
      Bridge  Chorus   Verse Out



No Way
D Tuning



-----|--------|------------------------------|--------------------------------|
-----|--------|------------------------------|--------------------------------|
-----|--------|------------------------------|--------------------------------|
-----|--------|-9--9--9---9-\-5-5-5-5-5-5-5--|--------------------------------|
-----|-11\-5--|-9--11-11--9-\-5-5-5-5-5-5-5--|--------------------------------|
-----|--------|-9--9--9---9-\-5-5-5-5-5-5-5--|--------------------------------|
                Verse

-----|---------------------------------|--------------------------------------|
-----|---------------------------------|--------------------------------------|
-----|---------------------------------|--------------------------------------|
-----|-6-6-6-6-0-0-0-2-2-2-2-3-3-3-3-6-|--------------------------------------|
-----|-6-6-6-6-0-0-0-2-2-2-2-3-3-3-3-6-|--------------------------------------|
-----|-6-6-6-6-0-0-0-2-2-2-2-3-3-3-3-6-|--------------------------------------|
      Chorus

-----|------------------------------------------------------------------------|
-----|------------------------------------------------------------------------|
-----|-3--3-3------------3--3-x-x-----------3--3-x-x--------------------------|
-----|--------7--3---3-5----------7---3-5-3----------7--3---3-5p3-5--5-5-7--7-|
-----|------------------------------------------------------------------------|
-----|------------------------------------------------------------------------|
      Bridge P.M.

---------------|--------------------------------------------------------------|
---------------|--------------------------------------------------------------|
---------------|--------------------------------------------------------------|
--7-7--3-5-3-3-|--------------------------------------------------------------|
---------------|--------------------------------------------------------------|
---------------|--------------------------------------------------------------|




Given To Fly
Standard Tuning


-----|----------------------------------|----------|-----------|--------------|
-----|-----------12---8-----------------|----------|-----------|--------------|
-----|--------0---------0-------------0-|----0---0-|----0---7--|--------------|
-----|----------------------------------|----------|-----------|--------------|
-----|-0h9-10---------------0-9/10-10---|-7----5---|-5----5----|--------------|
-----|----------------------------------|----------|-----------|--------------|
      Verse        (2x)                  end 1       end 2

-----|-5------------5-----------|---------------------------------------------|
-----|----5--5--7---5--5--5--7--|---------------------------------------------|
-----|--------------------------|---------------------------------------------|
-----|--------------------------|---------------------------------------------|
-----|--------------------------|---------------------------------------------|
-----|--------------------------|---------------------------------------------|
      Verse End     P

-----|-7--7-7-8---7---|--|------------------------|--|------------------------|
-----|-8--8-8-8---8---|--|-5--7-7--5--7-7--7-7-7--|--|------------------------|
-----|-7--7-7-7---7---|--|-7--7-7--7--7-7--7-7-7--|--|------------------------|
-----|----------------|4x|-7--7-7--7--7-7--7-7-7--|2x|------------------------|
-----|----------------|--|------------------------|--|------------------------|
-----|----------------|--|------------------------|--|------------------------|
      Chorus

-----|---3----3----3-------3----3----3--------------3---3--3--3--|--|---------|
-----|---x----x----x-------x----x----x--------------3---3--3--3--|--|---------|
-----|-5-5--5-5--5-5--\--5-5--5-5--5-5--\--4--2-----4---4--4--4--|--|---------|
-----|-5----5----5----\--5----5----5----\--4--2--5---------------|2x|---------|
-----|-3----3----3----\--3----3----3----\--2--0--5---------------|--|---------|
-----|-------------------------------------------3---------------|--|---------|
      Bridge


----|-7----------------7-----8--7------|--|-7--------------------------------|
----|----8--6--8--8p6-----8--------8p6-|--|----8--6--8--\--------------------|
----|----------------------------------|--|----------------7--\--2-----------|
----|----------------------------------|--|----------------------------------|
----|----------------------------------|--|-------------------------5---5----|
----|----------------------------------|--|----------------------------------|

    End




Pilate
Standard Tuning



-----|-------------------------------------------------------------|--|
-----|-------------------------------------------------------------|--|
-----|-11-11-11-9-9-9-9-7-7---7-x-x-11-11-11-12-12-12--7-7---7-x-x-|--|
-----|-12-12-12-0-0-0-0-0-0---0-x-x-12-12-12-12-12-12--0-0---0-x-x-|--|
-----|-9--9--9--7-7-7-7-5-5---5-x-x-9--9--9--10-10-10--5-5---5-x-x-|--|
-----|-------------------------------------------------------------|--|
      Intro/Verse

--|-------------------|------|
--|-------------------|------|
--|-10-10-10-10-------|------|
--|-10-10-10-10-------|------|
--|-8--8--8--8--------|------|
--|-------------6-6-/-|------|


-----|------------------------------------------------------------------------|
-----|------------------------------------3-----------------------------------|
-----|-4-4-4-6-6-6-6-7-7-7-7-2-2-4-4----2-2---4-4-4-6-6-6-6-7-7-7-7-2-2---4-4-|
-----|-0-0-0-0-0-0-0-0-0-0-0-0-0-0-0----0-0---0-0-0-0-0-0-0-0-0-0-0-0-0---0-0-|
-----|-2-2-2-4-4-4-4-5-5-5-5-5-5-2-2----5-----2-2-2-4-4-4-4-5-5-5-5-5-5---2-2-|
-----|------------------------------------------------------------------------|
       Interlude

-------------------------5-----5-----5-----5-5-4-2-0-|------------------------|
---------------------3-3---3-3---3-3---3-3-----------|------------------------|
---2-2---2-2---2-2-----------------------------------|------------------------|
---0-0---0-0---0-0-----------------------------------|------------------------|
---5-5---5-5---5-5-----------------------------------|------------------------|
-----------------------------------------------------|------------------------|
                     G2s Part End

-----|-3--3--3-------------3--3--3--------------|--|---------|----------------|
-----|-3--3--3-------------3--3--3--------------|--|---------|----------------|
-----|-4--4--4-------------4--4--4--------------|--|---------|----------------|
-----|-5--5--5---8--8--8---5--5--5---x-8-8--8---|--|-4-4-----|----------------|
-----|-5--5--5---8--8--8---5--5--5---x-8-8--8---|--|-----5---|----------------|
-----|-3--3--3---6--6--6---3--3--3---x-6-6--6---|--|---------|----------------|
      Chorus

-----|------------------------------------------|-----------------------------|
-----|------------------------------------------|-----------------------------|
-----|-11---12-12-7-7---2-2-4-4-6-6-------------|-----------------------------|
-----|-0----0--0--0-0---0-0-0-0-0-0-------------|-----------------------------|
-----|-9----10-10-5-5---5-5-2-2-4-4-------------|-----------------------------|
-----|------------------------------------------|-----------------------------|
      End




Do The Evolution
Standard Tuning




---------|----------------|--|------7----7----------------|-------------------|
---------|-0--------------|--|------0----0----------------|-------------------|
---------|-0-----------8--|--|-x--x-x--x-x--x-x--x--x-xp0-|-------------------|
---------|-0-----------8--|--|-8--8----8----7-7--6--6-6p0-|-------------------|
---------|---8----8-10-8--|--|-7--7----7----6-6--5--5-5---|-------------------|
---------|-----10---------|--|----------------------------|-------------------|

   Intro/Verse            Chorus

-----|--------------------------------------------------------------------0---|
-----|--------------------------------------------------------------------3---|
-----|--------------------------------------------------------------------2---|
-----|-3b--0-0--0--0-3b--0-0--0--0-2b--0----------0-2---------3b--0-2b-0--0---|
-----|-----------------------------------3--3---3-----3-1--0------------------|
-----|------------------------------------------------------------------------|
   Bridge

--------------------------------------|--|------|-----------------------------|
-/-15-15-15-15-15-15-15---15-15-15\---|--|------|-----------------------------|
-/-14-14-14-14-14-14-14---14-14-14\---|--|------|-----------------------------|
---0--0--0--0--0--0--0----0--0--0-----|--|------|-----------------------------|
--------------------------------------|--|------|-----------------------------|
--------------------------------------|--|------|-----------------------------|
                                           Pt.1

---------|--------------------------------------------------------------------|
---------|----15----15----15----15----15----15----15----15----15----15----15--|
---------|-16----16----16----16----15----15----15----15----14----14----14-----|
---------|--------------------------------------------------------------------|
---------|--------------------------------------------------------------------|
---------|--------------------------------------------------------------------|
            "Hallelujah"

--------------------------------------0--------0-------0-------0------0---|---|
----15----15----15----15----15--------3------x---3---x---3---x--3---x-----|---|
-14----12----12----12----12-----------2------x-----2-x-----2-x----2-x-----|---|
--------------------------------------0------x-------x-------x------x---0-|---|
--------------------------------------------------------------------------|---|
--------------------------------------------------------------------------|---|




Wishlist
Standard Tuning


-----|-------------------------------------------------|--|-------------------|
-----|-------------------------------------------------|--|-------------------|
-----|-x-x-x-x-x-x-x-x-x-x-x-x-x-x-x-x-x-x-x-x-x-x-x-x-|--|-------------------|
-----|-2-2-0-0-2-2-0-0-2-2-0-0-2-2-0-0-3-3-3-3-3-3-3-3-|--|-------------------|
-----|-3-3-3-3-3-3-3-3-3-3-3-3-3-3-3-3-3-3-3-3-3-3-3-3-|--|-------------------|
-----|-------------------------------------------------|--|-------------------|
      Intro/Verse

-----|-8-------8-------8----8-----8-----8---|--|------------------------------|
-----|---10------10------10---9-----9-----9-|--|------------------------------|
-----|------10------10----------9-----9-----|--|------------------------------|
-----|--------------------------------------|--|------------------------------|
-----|--------------------------------------|--|------------------------------|
-----|--------------------------------------|--|------------------------------|
      Verse Pt. 2

-----|------------------------------------------|-----------------------------|
-----|--------15--------------------------------|-----------------------------|
-----|-9/-12------12--9h10--9--10--9--10--9--0--|-----------------------------|
-----|------------------------------------------|-----------------------------|
-----|------------------------------------------|-----------------------------|
-----|------------------------------------------|-----------------------------|
      Verse Pt. 2 End

-----|------------------------------------|-----------------------------------|
-----|------------------------------------|-----------------------------------|
-----|------------------------------------|-----------------------------------|
-----|---------------10h12---12/14--------|-----------------------------------|
-----|-15vv------15-----------------13/15-|-----------------------------------|
-----|-------17---------------------------|-----------------------------------|


-----|----------8--8--|--|-------------------------|------------|-------------|
-----|----------------|--|-------------------------|------------|-------------|
-----|----------------|--|-------------------------|------------|-------------|
-----|----------------|--|-------------------------|------------|-------------|
-----|----15----------|--|----15----15----15----15-|------------|-------------|
-----|-12----12-------|--|-12----12----12----12----|------------|-------------|
                                                     Verse Pt. 2




The Color Red
Standard Tuning



-----|---|--|------------|--|----------------|-------------------------------|
-----|---|--|-7-----7----|--|----7-----7-----|-7------------7-7--7-----------|
-----|-7-|--|----7-------|--|-7-----7-----7--|-7--------7---7-7--7------7----|
-----|-7-|--|------------|--|----------------|-------7--7-----------7-7-7----|
-----|---|--|------------|--|----------------|-------7--------------7-7------|
-----|---|--|------------|--|----------------|-------------------------------|
     Intro All Natural Harmonics               Verse





MFC
Standard tuning



-----|-------------------------------|----------------------------------|--|--|
-----|-------3-----3-3---3-----------|----------3-----3-3---3-----------|--|--|
-----|---0---------------------5-4-0-|----------------------------5-4-0-|--|--|
-----|-5---5-----5-----------5-------|--5b--5b------5-----------5-------|--|--|
-----|-------------------------------|----------------------------------|--|--|
-----|-------------------------------|----------------------------------|--|--|
   Intro/Interlude

-----|-----3---3-3--------------------|--|-----3---3-----3--3-3-3-|-----------|
-----|-----3---3-3--------------------|--|-----3------3-------3-3-|-----------|
-----|-----0---0-0--------------------|--|-----0--------------0-0-|-----------|
-----|-3-------------5/7-7-7-7b-5-5-0-|--|-3----------------------|-----------|
-----|-3------------------------------|--|-3----------------------|-----------|
-----|-1------------------------------|--|-1----------------------|-----------|
   Verse

---------|-------------------------|--|-------------------------|-------------|
---------|-------------------------|--|-------------------------|-------------|
---------|-3--3--3--3--------------|--|-3--3--3--3--3--3--3--3--|-------------|
---------|-3--3--3--3--3--3--3--3--|--|-3--3--3--3--3--3--3--3--|-------------|
---------|-1--1--1--1--3--3--3--3--|--|-1--1--1--1--1--1--1--1--|-------------|
---------|-------------1--1--1--1--|--|-------------------------|-------------|
   Chorus   m  m  m  m  m  m  m  m       m  m  m  m  m  m  m  m




Low Light
Standard Tuning



-----|-------------3--3-3-3-3--3-3-3-3--3-3-|--|------------------------------|
-----|-------------3--3-3-3-3--3-3-3-3--3-3-|--|------------------------------|
-----|-0--0--------0--0-0-0-0--0-0-0-2--2-2-|--|------------------------------|
-----|-x--x--0--0---------------------------|2x|------------------------------|
-----|-3--2--x--x---------------------------|--|------------------------------|
-----|-------3--2---------------------------|--|------------------------------|
      Intro

-----|-------------3--3-3-3-3--3-3-3-3--3-3-|--|------------------------------|
-----|-------------3--3-3-3-3--3-3-3-3--3-3-|--|------------------------------|
-----|-0--0--------0--0-0-0-2--2-2-2-0--0-0-|2x|------------------------------|
-----|-x--x--0--0---------------------------|--|------------------------------|
-----|-3--2--x--x---------------------------|--|------------------------------|
-----|-------3--2---------------------------|--|------------------------------|
      Verse

-----|-----------3--3-3-3-3--3-3-3-3--3-3-|--|--------------------------------|
-----|-----------3--3-3-3-3--3-3-3-3--3-3-|--|--------------------------------|
-----|-0--0------0--0-0-0-2--2-2-2-0--0-0-|--|--------------------------------|
-----|-x--x--0----------------------------|2x|--------------------------------|
-----|-3--2--x----------------------------|--|--------------------------------|
-----|-------3----------------------------|--|--------------------------------|
      Verse Pt.2

-----|-----------|--|--------------------------------------------|------------|
-----|-3----3----|--|-------------------------------------3------|------------|
-----|-2----0----|--|-5-----4-----2-----4-----5-----4-----2------|------------|
-----|-0----2----|--|---5-----4-----2-----4-----5-----4---0------|------------|
-----|-----------|--|-----3-----2-----0-----2-----3-----2--------|------------|
-----|-----------|--|--------------------------------------------|------------|
      Chorus         Chorus End                            Strum

-----|-3------------|---------------------------------------------------------|
-----|-3---3--3--3--|---------------------------------------------------------|
-----|-0---2--2--0--|---------------------------------------------------------|
-----|-----4--2--0--|---------------------------------------------------------|
-----|--------------|---------------------------------------------------------|
-----|--------------|---------------------------------------------------------|
      Outro Chords







In Hiding
Standard Tuning

-----|-----------------3--3--3-3-3-3--2-2-2-|--|------------------------------|
-----|-2--2--2-2-3-----3--3--3-3-3-3--3-3-3-|--|------------------------------|
-----|-2--2--2-2-2-----0--0--0-0-0-0--2-2-2-|--|------------------------------|
-----|-2--2--2-2-2--------------------------|--|------------------------------|
-----|--------------0-----------------------|--|------------------------------|
-----|--------------------------------------|--|------------------------------|
      Intro/Chorus

-----|-----------------3---2---|----------------------------------------------|
-----|-2--2--2-2-3-----3---3---|----------------------------------------------|
-----|-2--2--2-2-2-----0---2---|----------------------------------------------|
-----|-2--2--2-2-2-------------|----------------------------------------------|
-----|--------------0----------|----------------------------------------------|
-----|-------------------------|----------------------------------------------|


-----|-2----3-5--8--7---8---7--8---2----2-----3-5--8--7---8---7--8-3-2-0-2/3--|
-----|-3--3------8--8---8---8--8---3----3---3------8--8---8---8--8------------|
-----|-2---------7--7---7---7--7---2----2----------7--7---7---7--7------------|
-----|------------------------------------------------------------------------|
-----|------------------------------------------------------------------------|
-----|------------------------------------------------------------------------|
      Verse

--5------2-------5--8--7---8---7--8---2----|---------------------------------|
----3----3-----8----8--8---8---8--8---3----|---------------------------------|
---------2---7------7--7---7---7--7---2----|---------------------------------|
-------------------------------------------|---------------------------------|
-------------------------------------------|---------------------------------|
-------------------------------------------|---------------------------------|


--|-2--2/3\2-2-0---0-2----3-2-0-3-2-0----0-3--0--2--2-2--2-2-2--2--2--2--|---|
--|-3------------3-----1--------------0-------0--3--3-3--3-3-3--3--3--3--|---|
--|-2-----------------------------------------0--2--2-2--2-2-2--2--2--2--|---|
--|----------------------------------------------------------------------|---|
--|----------------------------------------------------------------------|---|
--|----------------------------------------------------------------------|---|
    Bridge

----|-2---8---8---8---10--10--7---5--8---8--8-8-8-8-8--10-10-10-10-10-10-10--|
----|-3---7---8---7---10--10--7---7--7---7--7-7-7-7-7--10-10-10-10-10-10-10--|
----|-2---5---5---5---11--11--5---5--5---5--5-5-5-5-5--11-11-11-11-11-11-11--|
----|------------------------------------------------------------------------|
----|------------------------------------------------------------------------|
----|------------------------------------------------------------------------|
      Preinterlude

-----|---------------------------------------------------------|--|-----------|
-----|---------------------------------------------------------|--|-----------|
-----|-2-------------------------------------------------------|--|-----------|
-----|-2---0------0----0-------0-x-x-x-x-x-x---x---x-x-x-x-x-x-|--|-----------|
-----|-0--------0------------0---x-x-3-3-3-3---3---3-x-x-3-3-3-|--|-----------|
-----|--------3-----2-----1------x-x-1-1-0-1---1---1-x-x-1-1-0-|--|-----------|
      Interlude


-----|-------------------------|----------------------------------------------|
-----|-2--2--2-2-3-----2-------|----------------------------------------------|
-----|-2--2--2-2-2-----2---2---|----------------------------------------------|
-----|-2--2--2-2-2-----2---0---|----------------------------------------------|
-----|---------------------0---|----------------------------------------------|
-----|-------------------------|----------------------------------------------|
	Chorus End


-----|-2------3-5---8--7--7------7--5--3-2-0-2/3-5----2-2/3\2-2-0---0-2---3--|
-----|-3--3-3-------8--8----8----8-----------------3--3-----------3-----1----|
-----|-2------------7--7------7--7--------------------2----------------------|
-----|------------0----------------------------------------------------------|
-----|-----------------------------------------------------------------------|
-----|-----------------------------------------------------------------------|
      Outro                                                 fade out




Push Me Pull Me
Standard Tuning



-----|-----------|--|-------------|--|-------------|--|-----------------------|
-----|-----------|--|-------------|--|-------------|--|-----------------------|
-----|-----------|--|-------------|--|-------------|--|-----------------------|
-----|-----------|--|-14-14-14-14-|--|---------0-2-|--|-----------------------|
-----|-----------|--|-------------|--|-----0-2-----|--|-----------------------|
-----|-0-0--3-5--|--|-------------|--|-0-3---------|--|-----------------------|
      Bass            Guitar          Verse

-----|-----------------------------------------------|--|---------------------|
-----|-----------------------------------------------|--|---------------------|
-----|---------------2-2-2-2-2-2-2-2-2-2-2-2-2-2-2-2-|--|---------------------|
-----|-4-4-----------2-2-2-2-2-2-2-2-2-2-2-2-2-2-2-2-|--|---------------------|
-----|-4-4-----------0-0-0-0-0-0-0-0-0-0-0-0-0-0-0-0-|--|---------------------|
-----|-2-2-------------------------------------------|--|---------------------|
      Chorus F# D A





All Those Yesterdays
Standard Tuning



-----|-------------------|--|-------------------------------------------------|
-----|-----1---------1---|--|-------------------------------------------------|
-----|---2-----------1---|--|-------------------------------------------------|
-----|-3-----3p0---2-2-2-|--|-------------------------------------------------|
-----|-----------3-------|--|-------------------------------------------------|
-----|-------------------|--|-------------------------------------------------|
      Intro/Verse

-----|-----1-----------3-------1----------------1---------3------1--------|---|
-----|---3---3-------5---5-x-1-1-----1/2-1----3---3-----5--------1-----1--|---|
-----|-3-------3/5-5-------x-2-2-----1/2-1--3-------3/5----------2-----1--|---|
-----|---------------------x-3-------2/3-2-------------------3-3-----2-2-2|---|
-----|---------------------------3-3-------------------------------3------|---|
-----|--------------------------------------------------------------------|---|
      Chorus

-----|-----------------------------|------------------------------------------|
-----|-----------------------------|------------------------------------------|
-----|-----2---------3---------5---|------------------------------------------|
-----|-------------3---------------|------------------------------------------|
-----|---3---3-3/5-----5/6---6-----|------------------------------------------|
-----|-1-------------------4-----0-|------------------------------------------|
      Bridge





Hummus (Hidden Song)
Standard Tuning



-----|-5-7-8--7-5-3-5-----------------------------|--|------------------------|
-----|-x-x-x--x-x-x-x--------5/7--5-------5/7--5--|--|------------------------|
-----|-5-7-8--7-5-3-5---8p0--x----x--8p0--x----x--|--|------------------------|
-----|-----------------------5/7--5-------5/7--5--|--|------------------------|
-----|--------------------------------------------|--|------------------------|
-----|--------------------------------------------|--|------------------------|


-----|-5-7-8--7-5-7/8\7-7----------------|----------------------------------8-|
-----|-x-x-x--x-x-x-----x--------5/7--5--|---------------------8--6--6-8-9--x-|
-----|-5-7-8--7-5-7/8\7-7---8p0--x----x--|-7-5p0-7-3/5--5-7-8--x--x--x-x-x--5-|
-----|---------------------------5/7--5--|-x-x---x-x----x-x-x--5--3--3-5-6----|
-----|-----------------------------------|-5-3p0-5-1/3--3-5-6-----------------|
-----|-----------------------------------|------------------------------------|


--7---8--10--11--10--8--7----|------------------------------------------------|
--x---x--x---x---x---x--x--8-|------------------------------------------------|
--4---5--7---8---7---5--4--x-|------------------------------------------------|
---------------------------5-|------------------------------------------------|
-----------------------------|------------------------------------------------|
-----------------------------|------------------------------------------------|
Tap to rate this tab
# A B C D E F G H I J K L M N O P Q R S T U V W X Y Z