Song name
# A B C D E F G H I J K L M N O P Q R S T U V W X Y Z

Pearl Jam - Brain Of J tab

Only verse and chorus is tabbed. Check another tab for the other parts.
Guitar 1 is tuned in drop-D, and guitar 2 is in standard tuning.

Verse:

Guitar 1 - Drop-D
e|--------------------------------------------------------------------|
B|--------------------------------------------------------------------|
G|--------------------------------------------------------------------|
D|---9-9-9--8-8-8--7---7-8-9---7-8-0---9-9-9--8-8-8--7-7-7-7-7--------|
A|---9-9-9--8-8-8--7---7-8-9---7-8-0---9-9-9--8-8-8--7-7-7-7-7--------|
D|---9-9-9--8-8-8--7---7-8-9---7-8-0---9-9-9--8-8-8--7-7-7-7-7--------|


Guitar 2 - Standard E-tuning
e|--------------------------------------------------------------------|
B|--------------------------------------------------------------------|
G|--------------------------------------------------------------------|
D|--------------------------------------------------------------------|
A|-----------------------------5---5----------------------------------|
E|---7-7-7--6-6-6--5---5-6-7-----7-----7-7-7--6-6-6--5-5-5-5-5--------|
I think you can play this with power-chords.

Chorus:

Guitar 1 - Drop-D Tuning
e|--------------------------------------------------------------------|
B|--------------------------------------------------------------------|
G|--------------------------------------------------------------------|
D|---10-----6-----3---------------------------------------------------|
A|---10-----6-----3---------------------------------------------------|
D|---10-----6-----3---------------------------------------------------|
Listen to the song for the correct strumming pattern.

 
Guitar 2 - Standard E-Tuning

e|---8-------------------|
B|---8-------------------|
G|---8-------------------|
D|-----------------------|
A|-----------------------|
E|-----------------------|
Listen to the song for the strumming pattern, play this continuously throughout the whole chorus.
Tap to rate this tab
 
# A B C D E F G H I J K L M N O P Q R S T U V W X Y Z