Song name
# A B C D E F G H I J K L M N O P Q R S T U V W X Y Z

Pearl Jam - Strangest Tribe tab

Strangest Tribe
Pearl Jam

Intro

E ---------------------------------
B ---------------------------------
G -----------1--3--5--3--1---------
D --------3--------1---------------  repeat 4 times
A -----3---------------------------
E --1------------------------------
  
E ------------------------------- 
B -------------------------------
G ------------------------------- 
D --3-----------------3---------- 
A --3-----------3--1--3--6--8--6- 
E --1--1--3--4------------------- 

E ----------------------------
B ----------------------------
G -8--8--8--6--8--8--8--6-----
D -8--8--8--6--8--8--8--6-----
A -6--6--6--6--6--6--6--6-----
E ----------------------------


Verse

E ------------------------------- 
B -------------------------------
G ------------------------------- 
D --3-----------------3---------- 
A --3-----------3--1--3--6--8--6- 
E --1--1--3--4------------------- 
                It's five bellow...

E ----------------------------
B ----------------------------
G -8--8--8--6--8--8--8--6-----
D -8--8--8--6--8--8--8--6-----
A -6--6--6--6--6--6--6--6-----
E ----------------------------



 Chorus

 G                   D
 Follow the ageless tide
                      F
 Follow the angle's light
                        C     G D    F G
 Follow the strangest tribe

 and so on..
Tap to rate this tab
 
# A B C D E F G H I J K L M N O P Q R S T U V W X Y Z