Song name
# A B C D E F G H I J K L M N O P Q R S T U V W X Y Z

Pearl Jam - Rearviewmirror tab

song title: rearviewmirror
artist: pearl jam
album: vs
tabbed by: sean carver

verse:
E----------------------------------------------------
B----------------------------------------------------
G----------------------------------------------------
D----------------------------------------------------
A----0--5---5--7--------then-----0--7---7--9---------
E--5------5------0--0----------7------7------0--0----

CHORUS:
E----------------------------
B----------------------------
G-4---4-6--------------------
D-4---4-6-5---5-7-4---2-4-5--
A-2---2-4-5---5-7-4---2-4-5--
E---------3---3-5-2---0-2-3--

BRIDGE:
E---------------------------------
B---------------------------------
G---------------------------------
D--7-7-XXX-7-77-XXX-7-77-XXX-7-77-
A--7-7-XXX-7-77-XXX-7-77-XXX-7-77-
E--5-5-XXX-5-55-XXX-5-55-XXX-5-55-

this is pretty accurate, just listen to the song to get the right timings.....
Tap to rate this tab
# A B C D E F G H I J K L M N O P Q R S T U V W X Y Z