Song name
# A B C D E F G H I J K L M N O P Q R S T U V W X Y Z

Pearl Jam - Of The Girl tab

Intro:
-|---------0---------------------------------------------------------------|--|
-|-------3-----------------------------------------------------------------|--|
-|--------------2---2---2---2---5---2---2---2---5---2---2---2---5---2---2--|--|
-|----0-------0---0---0---0---0---0---0---0---0---0---0---0---0---0---0----|--|
-|-------------------------------------------------------------------------|--|
-|-------------------------------------------------------------------------|--|
 G1

-|-0----------7-8-------------------5---5---5---5---5---5---5---5---5---5--|--|
-|-0----------------0-------------3---3---3---3---3---3---3---3---3---3----|--|
-|-0-----------------------------------------------------------------------|--|
-|-------------------------------------------------------------------------|--|
-|-------------------------------------------------------------------------|--|
-|-------------------------------------------------------------------------|--|
 G2

-|---------------------------------------------------------------------------|
-|---------------------------------------------------------------------------|
-|---2---5---2---2---5---2---2---4---5---2---2---2---5---2---2---5---2---2---|
-|-0---0---0---0---0---0---0---0---0---0---0---0---0---0---0---0---0---0-----|
-|---------------------------------------------------------------------------|
-|---------------------------------------------------------------------------|
 G1

-|---5---5---5---5---5---5---5---5---5---5---5---5---5---5---5---5---5---5---|
-|-3---3---3---3---3---3---3---3---3---3---3---3---3---3---3---3---3---3-----|
-|---------------------------------------------------------------------------|
-|---------------------------------------------------------------------------|
-|---------------------------------------------------------------------------|
-|---------------------------------------------------------------------------|
 G2

-|---------------------------------------5-------8--10-----------------------|
-|-------1-------------------------------------------------------------------|
-|-------4-----------------------4---5---------------------------------------|
-|---------------------------------------------------------------------------|
-|---------------------------------------------------------------------------|
-|---------------------------------------------------------------------------|
 G3

-|----------0---------0------------------------------------------------------|
-|-----------------1-----1----1--1----------0--1--------0h1p0--0----0--1-----|
-|---2---4-----5-----------2-------------2--------2--2-----------2-------2---|
-|-0---0---------------------------------------------------------------------|
-|---------------------------------------------------------------------------|
-|---------------------------------------------------------------------------|
 G1 (bass and drums enter)

-|---5------0-------0----------------------------------5------5---5---5---5--|
-|-3---3-0----1--------1--------------------0--1-----3------3---3---3---3----|
-|--------------2---------------------------------2--------------------------|
-|---------------------------------------------------------------------------|
-|---------------------------------------------------------------------------|
-|---------------------------------------------------------------------------|
 G2

-|------------------------------------------------------------------10-------|
-|--------------------------------------10--------------------------10-------|
-|---------------------------------10-x-10----------------12/14-----10-------|
-|---------------------------------10-x-10-12--------------------------------|
-|---------------------------------------------------------------------------|
-|--------x-x-x-0--0--0--0---0--0-------------0----0--0----------0-----0--0--|
 G3

-|---------------------------------------------------------------------------|
-|--------------0--1-------0--0-------0--1-----------------------------------|
-|--2-0------2-------2--2-------2--2-------2---2--0-------2--2--0--------2---|
-|------3-0------------------------------------------3-0-----------3--0------|
-|---------------------------------------------------------------------------|
-|---------------------------------------------------------------------------|
 G1

-|--5-3------5---8--5---5------5--8----5------5--8----5---5--5--3--------5---|
-|------6-3---------------3--3-------3---3--3-------3---3----------6--3------|
-|---------------------------------------------------------------------------|
-|---------------------------------------------------------------------------|
-|---------------------------------------------------------------------------|
-|---------------------------------------------------------------------------|
 G2

-|---------------------------------------------------------------------------|
-|--10--10----------------10--10-----10-10-10b*---12-10------10-12-10----10--|
-|--10--10----------------10--10-----10-10-10b*---12-10------10-12-10----10--|
-|---------12----------12--------12------------12-------12-12---------12-----|
-|---------------------12----------------------------------------------------|
-|---------------------------------------------------------------------------|
 G3                                        *quarter step bend

Verse:
-|------------------------------------------------------------|---------------|
-|------------------------------------------------------------|---------------|
-|--2-0-------2---2-0-------2--2-0-------2---2--0---------2---|---------------|
-|-------3-0-----------3-0----------3-0------------3--0-------|---------------|
-|------------------------------------------------------------|---------------|
-|------------------------------------------------------------|---------------|
 G1                                      Oh he deals em off

-|--5-3-------5---5-3-------5--5-3-------5---5--3---------5---|---------------|
-|-------6-3-----------6-3----------6-3------------6--3-------|---------------|
-|------------------------------------------------------------|---------------|
-|------------------------------------------------------------|---------------|
-|------------------------------------------------------------|---------------|
-|------------------------------------------------------------|---------------|
 G2

-|------------------------------------------------------------|---------------|
-|-------------10--x-10-------10---------------------------10-|---------------|
-|-------------10--x-10-------10---------------------------10-|---------------|
-|-12\10-12-12----------12-12----12\10-12-12------------------|---------------|
-|--x-----x--x--------------------x-----x--x------------------|---------------|
-|-10\8--10-10-------------------10\8--10-10------------------|---------------|
 G3

-|-----------------------------------------------------------------|----------|
-|-----------------------------------------------------------------|----------|
-|--2--0--------2---2--0--------2---2--0--------2---2--0--------2--|----------|
-|--------3--0------------3--0------------3--0------------3--0-----|----------|
-|-----------------------------------------------------------------|----------|
-|-----------------------------------------------------------------|----------|
 G1 Off the top     ties them off                   fills it up

-|--5--3--------5---5--3------------5--3--------5---5--3--------5--|----------|
-|--------6--3------------6--3--6-3-------6--3------------6--3-----|----------|
-|-----------------------------------------------------------------|----------|
-|-----------------------------------------------------------------|----------|
-|-----------------------------------------------------------------|----------|
-|-----------------------------------------------------------------|----------|
 G2

-|-----------------------------------------------------------------|----------|
-|--------------------------------------------10-------------------|----------|
-|-------------------------------10-----------10-------------------|----------|
-|-------------------------------12--------------12----------------|----------|
-|-----------------------------------------------------------------|----------|
-|-----------------------------------------------------------------|----------|
 G3

-|------------------------------------------------------------------|---------|
-|------------------------------------------------------------------|---------|
-|---2--0--------2---2--0--------2---2--0--------2---2--0--------2--|---------|
-|---------3--0------------3--0------------3--0------------3--0-----|---------|
-|------------------------------------------------------------------|---------|
-|------------------------------------------------------------------|---------|
 G1  With his past, gets carried away            oh half his life

-|---5--3--------5---5--3--------5---5--3--------5---5--3--------5--|---------|
-|---------6--3------------6--3------------6--3------------6--3-----|---------|
-|------------------------------------------------------------------|---------|
-|------------------------------------------------------------------|---------|
-|------------------------------------------------------------------|---------|
-|------------------------------------------------------------------|---------|
 G2

-|------------------------------------------------------------------|---------|
-|----------------------------------12-10---------------------------|---------|
-|----------------------------------12-10-------12\-----------------|---------|
-|----------------------------------------12-12---------------------|---------|
-|------------------------------------------------------------------|---------|
-|------------------------------------------------------------------|---------|
 G3

-|-----------------------------------------------------------------|----------|
-|-----------------------------------------------------------------|----------|
-|--2--0--------2---2--0--------2---2--0--------2---2--0--------2--|----------|
-|--------3--0------------3--0------------3--0------------3--0-----|----------|
-|-----------------------------------------------------------------|----------|
-|-----------------------------------------------------------------|----------|
 G1 A-hand me down  wasted away                 oh he fills it up

-|--5--3--------5---5--3--------5---5--3--------5---5--3--------5--|----------|
-|--------6--3------------6--3------------6--3------------6--3-----|----------|
-|-----------------------------------------------------------------|----------|
-|-----------------------------------------------------------------|----------|
-|-----------------------------------------------------------------|----------|
-|-----------------------------------------------------------------|----------|
 G2

-|--------------10-----10-----------10-----------------------------|----------|
-|--------------10-----10-12-----10-10-----------------------------|----------|
-|----------------12-10---12-----10-10-12--------------------------|----------|
-|--------------------------12-12---------12-12-12-----------------|----------|
-|----------------------------------------------12-----------------|----------|
-|-----------------------------------------------------------------|----------|
 G3

-|------------------------------------------------------------------|---------|
-|---------------------------------------------------0--1-----------|---------|
-|---2--0--------2---2--0--------2---2--0--------2--------2-----2---|---------|
-|---------3--0------------3--0------------3--0---------------0---0-|---------|
-|------------------------------------------------------------------|---------|
-|------------------------------------------------------------------|---------|
 G1  With the love   of a girl

-|---5--3--------5---5--3--------5---5--3--------5---7--8-5-----5---|---------|
-|---------6--3------------6--3------------6--3---------------3---3-|---------|
-|------------------------------------------------------------------|---------|
-|------------------------------------------------------------------|---------|
-|------------------------------------------------------------------|---------|
-|------------------------------------------------------------------|---------|
 G2

-|------------------------------------------------------------------|---------|
-|-----------------10--------------------------------10-------------|---------|
-|-12b14r12-10-----10--------------------------------10-------------|---------|
-|-------------12--------------------------------x-----------12-----|---------|
-|-----------------------------------------x-x---x------------------|---------|
-|-----------------------------------------x-x---x------------------|---------|
 G3

-|------------------------------------------------------|---------------------|
-|--0---0-------------0---1-----------------------------|---------------------|
-|---------2-----2-----------2------2----2--0--------2--|---------------------|
-|-------------0---0--------------0---0--------3--0-----|---------------------|
-|------------------------------------------------------|---------------------|
-|------------------------------------------------------|---------------------|
 G1

-|--5-3----5-----5----7---8--5------5----5--3--------5--|---------------------|
-|-------3-----3---3--------------3---3--------6--3-----|---------------------|
-|------------------------------------------------------|---------------------|
-|------------------------------------------------------|---------------------|
-|------------------------------------------------------|---------------------|
-|------------------------------------------------------|---------------------|
 G2

-|------------------------------------------------------|---------------------|
-|--12-10--------10--------x-10b--------------------12--|---------------------|
-|--12-10--------10--------x-10b--------------------12--|---------------------|
-|--------12-12-----------------12------12-10-----------|---------------------|
-|------------------------------------------------------|---------------------|
-|--------------------------------------------10-10-----|---------------------|
 G3

-|-----------------------------------------------------------------------|----|
-|--0---1---------------0h1---0-------------0--1-------------------------|----|
-|---------2-------2-------------2-----2---------2----2---2--0--------2--|----|
-|---------------0---0---------------0---0----------0---0-------3--0-----|----|
-|-----------------------------------------------------------------------|----|
-|-----------------------------------------------------------------------|----|
 G1                                                                   Oh

-|--7---8--5-------5----5--3-----5-----5----7--8-5----5---5--3--------5--|----|
-|---------------3---3--------3------3---3----------3---3-------6--3-----|----|
-|-----------------------------------------------------------------------|----|
-|-----------------------------------------------------------------------|----|
-|-----------------------------------------------------------------------|----|
-|-----------------------------------------------------------------------|----|
 G2

-|-----------------------------------------------------------------------|----|
-|--10----------------------------------------------10-13b15r13-------x--|----|
-|--10----------------x-12------12b14r12p10---------10----------10----x--|----|
-|---------10--12-----x-12-10-10-----------12-10h12-------------10-12-x--|----|
-|-----------------------------------------------------------------------|----|
-|-----------------------------------------------------------------------|----|
 G3

-|-----------------------------------------------------------------|----------|
-|-----------------------------------------------------------------|----------|
-|--2--0--------2---2--0--------2---2--0--------2---2--0--------2--|----------|
-|--------3--0------------3--0------------3--0------------3--0-----|----------|
-|-----------------------------------------------------------------|----------|
-|-----------------------------------------------------------------|----------|
 G1 He lifted along drilled the pain with money to burn

-|--5--3--------5---5--3--------5---5--3--------5------------------|----------|
-|--------6--3------------6--3------------6--3---------------------|----------|
-|-----------------------------------------------------------------|----------|
-|-----------------------------------------------------------------|----------|
-|-----------------------------------------------------------------|----------|
-|-----------------------------------------------------------------|----------|
 G2

-|-----------------------------------------------------------------|----------|
-|---12-----------------------------10---------------10--12-----10-|----------|
-|---12-----------------------------10--10h12p10-----10--12-----10-|----------|
-|-------------12-------------------------------12-12--------12----|----------|
-|-----------------------------------------------------------------|----------|
-|-----------------------------------------------------------------|----------|
 G3

Chorus:
-|--------0-------|-1----------------0-------------------0-----------|--------|
-|---3--1---1-0-1-|-1---1----1-------1-1---1--3----3--1-----1--0--1--|--------|
-|-2--------------|-2----------------2---2------2--------------------|--------|
-|----------------|-3----------------2-------------------------------|--------|
-|----------------|-x----------------0-------------------------------|--------|
-|----------------|-1------------------------------------------------|--------|
 G1                 How he makes his getaway

-|--------0-------|-5----------------5-------------------------------|--------|
-|-3-3--1---1-0-1-|-6----------------5---------3---------------------|--------|
-|----------------|-5----------------5---------2---------------------|--------|
-|----------------|-7----------------7---------0---------------------|--------|
-|----------------|-8----------------7---------0---------------------|--------|
-|----------------|------------------5-------------------------------|--------|
 G2

-|----------------|-1----------/-----5-----\-------------------------|--------|
-|-10---x---------|-1----------/-----5-----\---3---------------------|--------|
-|-10---x---------|-2----------/-----5-----\---2---------------------|--------|
-|----------------|-3----------/-----7-----\---0---------------------|--------|
-|----------------|----------------------------0---------------------|--------|
-|----------------|--------------------------------------------------|--------|
 G3

-|--1----------------0-------------1-------------0---------------12^--|-------|
-|--1---1----1-------1----1---1----1----1---1----1----1---1---1-------|-------|
-|--2----------------2-------------2-------------2--------------------|-------|
-|--3----------------2-------------3-------------2--------------------|-------|
-|--x----------------0-------------x-------------0--------------------|-------|
-|--3------------------------------1----------------------------------|-------|
 G1 How he makes his getaway

-|--5----------------5-------------5-------------5--------------------|-------|
-|--6----------------5-------------6-------------5--------------------|-------|
-|--5----------------5-------------5-------------5--------------------|-------|
-|--7----------------7-------------7-------------7--------------------|-------|
-|--8----------------7-------------8-------------7--------------------|-------|
-|-------------------5---------------------------5--------------------|-------|
 G2

-|--1----------/-----5-------------1--------/----5--------------------|-------|
-|--1----------/-----5-------------1--------/----5--------------------|-------|
-|--2----------/-----5-------------2--------/----5--------------------|-------|
-|--3----------/-----7-------------3--------/----7--------------------|-------|
-|--------------------------------------------------------------------|-------|
-|--------------------------------------------------------------------|-------|
 G3

Bridge:
-|----------------------------------------------------------------|-----------|
-|-------0--1--------0h1p0--0--------0--1-------------------------|-----------|
-|----2--------2--2------------2--2--------2----2---2--0--------2-|-----------|
-|-0------------------------------------------0---0-------3--0----|-----------|
-|----------------------------------------------------------------|-----------|
-|----------------------------------------------------------------|-----------|
 G1

-|----5--7--8--5--5--5--3------5--5--7--8--5----5---5--3--------5-|-----------|
-|-3------------------------3-----------------3---3-------6--3----|-----------|
-|----------------------------------------------------------------|-----------|
-|----------------------------------------------------------------|-----------|
-|----------------------------------------------------------------|-----------|
-|----------------------------------------------------------------|-----------|
 G2

-|----------------------------------------------------------------|-----------|
-|----------------------------------------------------------------|-----------|
-|-------------------------------------------12p10h12--12p10h12---|-----------|
-|------------12--0-0--12--12--12--12--x-12----------12--------12-|-----------|
-|----------------------------------------------------------------|-----------|
-|----------------------------------------------------------------|-----------|
 G3

-|-------------------------------------------------------------------------|--|
-|---0--1--------------0h1--0--------------0--1----------------------------|--|
-|---------2-----2-------------2-----2-----------2-----2-----2--0--------2-|--|
-|------------0-----0-------------0-----0-----------0-----0--------3--0----|--|
-|-------------------------------------------------------------------------|--|
-|-------------------------------------------------------------------------|--|
 G1

-|---7--8--5-----5-----5-3-----5-----5-----7--8--5-----5-----5--3--------5-|--|
-|------------3-----3-------3-----3-----3-----------3-----3--------6--3----|--|
-|-------------------------------------------------------------------------|--|
-|-------------------------------------------------------------------------|--|
-|-------------------------------------------------------------------------|--|
-|-------------------------------------------------------------------------|--|
 G2

-|-------------------------------------------------------------------------|--|
-|------------------------------------13b15r13-10--------------------------|--|
-|12p10h12--12p10h12--12p10h12-----10b-----------12b14r12p10---10-------10-|--|
-|--------12--------12--------12-10-------------------------12----12-12----|--|
-|-------------------------------------------------------------------------|--|
-|-------------------------------------------------------------------------|--|
 G3

-|---------------------------------------------------------------------------|
-|---0--1--------------0h1--0--------------0--1------------------------------|
-|---------2-----2-------------2-----2-----------2-----2-----2--0--------2---|
-|------------0-----0-------------0-----0-----------0-----0--------3--0------|
-|---------------------------------------------------------------------------|
-|---------------------------------------------------------------------------|
 G1

-|---7--8--5-----5-----5--3----5-----5-----7--8--5-----5-----5--3--------5---|
-|------------3-----3--------3----3-----3-----------3-----3--------6--3------|
-|---------------------------------------------------------------------------|
-|---------------------------------------------------------------------------|
-|---------------------------------------------------------------------------|
-|---------------------------------------------------------------------------|
 G2

-|---------------------------------------------------------------------------|
-|-13-13-12----------------------10----13b15r13-10---------------------------|
-|-14-14-12-10-------12b14r12-12-10---------------12b14r12p10----------------|
-|------------12-xxxx------------10-12-----------------------12-10h12-12-12--|
-|---------------xxxx-------------------------------------------------12-12--|
-|--------------------------------------------------------------------10-10--|
 G3

-|-------------------------------------------------------------------------|--|
-|---0--1--------------0h1--0--------------0--1----------------------------|--|
-|---------2-----2-------------2-----2-----------2-----2-----2--0--------2-|--|
-|------------0-----0-------------0-----0-----------0-----0--------3--0----|--|
-|-------------------------------------------------------------------------|--|
-|-------------------------------------------------------------------------|--|
 G1                                                                      Oh

-|---7--8--5-----5-----5--3----5-----5-----7--8--5-----5-----5--3--------5-|--|
-|------------3-----3--------3----3-----3-----------3-----3--------6--3----|--|
-|-------------------------------------------------------------------------|--|
-|-------------------------------------------------------------------------|--|
-|-------------------------------------------------------------------------|--|
-|-------------------------------------------------------------------------|--|
 G2

-|-------------------------------------------------------------------------|--|
-|-10-10-10--------10-10-10-----------------------13b15r13-10--------------|--|
-|-10-10-10--------10-10-10---------10-12b14-10--------------12b14r12p10---|--|
-|---------12--12----------12--12-12------------12----------------------12-|--|
-|---------12--12----------------------------------------------------------|--|
-|---------10--10----------------------------------------------------------|--|
 G3

Verse:
-|------------------------------------------------------------------|---------|
-|------------------------------------------------------------------|---------|
-|--2--0--------2---2--0--------2---2--0--------2---2--0--------2---|---------|
-|--------3--0------------3--0------------3--0------------3--0------|---------|
-|------------------------------------------------------------------|---------|
-|------------------------------------------------------------------|---------|
 G1 He draws a path heavy the thought quarter to four

-|--5--3--------5---5--3--------5---5--3--------5---5--3--------5---|---------|
-|--------6--3------------6--3------------6--3------------6--3------|---------|
-|------------------------------------------------------------------|---------|
-|------------------------------------------------------------------|---------|
-|------------------------------------------------------------------|---------|
-|------------------------------------------------------------------|---------|
 G2

-|------------------------------------------------------------------|---------|
-|----------------10--12-10-------x---10-10---------10-10-----------|---------|
-|----------------10--12-10-------x---10-10---------10-10-----10----|---------|
-|-12p10----10-------------12-12------------------------------10----|---------|
-|------------------------------------------------------------------|---------|
-|--------------------------------------------------------10--------|---------|
 G3

-|-----------------------------------------------------------------|----------|
-|-----------------------------------------------------------------|----------|
-|--2--0--------2---2--0--------2---2--0--------2---2--0--------2--|----------|
-|--------3--0------------3--0--0---------3--0------------3--0-----|----------|
-|-----------------------------------------------------------------|----------|
-|-----------------------------------------------------------------|----------|
 G1 Fills his night with the thought of a girl

-|--5--3--------5---5--3--------5---5--3--------5---5--3--------5--|----------|
-|--------6--3------------6--3------------6--3------------6--3-----|----------|
-|-----------------------------------------------------------------|----------|
-|-----------------------------------------------------------------|----------|
-|-----------------------------------------------------------------|----------|
-|-----------------------------------------------------------------|----------|
 G2

-|-----------------------------------------------------------------|----------|
-|-12-10------------12---10----------------------------------------|----------|
-|-12-10------------12---10-------12b14-12-10----------------------|----------|
-|------12-12----------------12---------------12vvvvvvvvvvvvvvvvvv-|----------|
-|-----------------------------------------------------------------|----------|
-|-----------------------------------------------------------------|----------|
 G3

Chorus:
-|-------0-----------|-1----------------0----------------------0-----------|--|
-|-3--1-----1--0--1--|-1----1----1------1----1----1------3--1-----1--0--1--|--|
-|-------------------|-2----------------2-------------2--------------------|--|
-|-------------------|-3----------------2----------------------------------|--|
-|-------------------|-x----------------0----------------------------------|--|
-|-------------------|-1---------------------------------------------------|--|
 G1                    How he makes his getaway

-|-------0-----------|-5----------------5----------------------------------|--|
-|-3--1-----1--0--1--|-6----------------5-------------3--------------------|--|
-|-------------------|-5----------------5-------------2--------------------|--|
-|-------------------|-7----------------7-------------0--------------------|--|
-|-------------------|-8----------------7-------------0--------------------|--|
-|-------------------|------------------5----------------------------------|--|
 G2

-|-------------------|-1----------/-----5----------------------------------|--|
-|-------------------|-1----------/-----5----------------------------------|--|
-|-------------------|-2----------/-----5----------------------------------|--|
-|-12----------------|-3----------/-----7----------------------------------|--|
-|-------------------|--------------------------------5--------------------|--|
-|-12----------------|-----------------------------------------------------|--|
 G3

-|--1----------------0--------------------------------|-----------------------|
-|--1----1----1------1----1----1------1-----1--0--1---|-----------------------|
-|--2----------------2--------------------------------|-----------------------|
-|--3----------------2--------------------------------|-----------------------|
-|--x----------------0--------------------------------|-----------------------|
-|--1-------------------------------------------------|-----------------------|
 G1 How he makes his getaway

-|--5----------------5-------------------0------------|-----------------------|
-|--6----------------5----5--------3--1-----1--0--1---|-----------------------|
-|--5----------------5--------------------------------|-----------------------|
-|--7----------------7--------------------------------|-----------------------|
-|--8----------------7--------------------------------|-----------------------|
-|-------------------5--------------------------------|-----------------------|
 G2

-|--------------/----5--------------------------------|-----------------------|
-|--1-----------/----5--------------------------------|-----------------------|
-|--2-----------/----5--4b5r4b5r4b5r4b5r4b5r4b5r4b5r4-|-----------------------|
-|--3-----------/----7--------------------------------|-----------------------|
-|--3-------------------------------------------------|-----------------------|
-|----------------------------------------------------|-----------------------|
 G3

-|--1----------------0-------------1-------------0------------------|---------|
-|--1----1----1------1----1---1----1----1---1----1--------1---------|---------|
-|--2----------------2-------------2-------------2---2-------2------|---------|
-|--3----------------2-------------3-------------2------------------|---------|
-|--x----------------0-------------x-------------0------------------|---------|
-|--1------------------------------1--------------------------------|---------|
 G1 How he makes his getaway                    getaway

-|--5----------------5-------------5-------------5------------------|---------|
-|--6----------------5-------------6-------------5------------------|---------|
-|--5----------------5-------------5-------------5------------------|---------|
-|--7----------------7-------------7-------------7------------------|---------|
-|--8----------------7-------------8-------------7------------------|---------|
-|-------------------5---------------------------5------------------|---------|
 G2

-|--1----------/-----5-------------1--------/----5------------------|---------|
-|--1----------/-----5-------------1--------/----5------------------|---------|
-|--2----------/-----5-------------2--------/----5------------------|---------|
-|--3----------/-----7-------------3--------/----7-------------5b6r5|---------|
-|------------------------------------------------------------------|---------|
-|------------------------------------------------------------------|---------|
 G3

Outro:
-|-----------0-------------------------------------------------|--------------|
-|-----0--1-------1--1--1---0--0-------------------------------|--------------|
-|---------------------------------2--2--2--2------------------|--------------|
-|--0----------------------------------------------------------|--------------|
-|-------------------------------------------------------------|--------------|
-|-------------------------------------------------------------|--------------|
 G1

-|-----7--8--5---5---5-3---5----5---7-8-5---5---5--3--------5--|--------------|
-|-------------3---3-----3----3---3-------3---3-------6--3-----|--------------|
-|-------------------------------------------------------------|--------------|
-|-------------------------------------------------------------|--------------|
-|-------------------------------------------------------------|--------------|
-|-------------------------------------------------------------|--------------|
 G2

-|-----------------------------------------------------------|----------------|
-|---0--1---0--1-------------------------------0--1--0-------|----------------|
-|----------------2-----2--0--2----------0--2-----------2----|----------------|
-|-----------------------------------------------------------|----------------|
-|-----------------------------------------------------------|----------------|
-|-----------------------------------------------------------|----------------|
 G1

-|---7--8-5----5---5-3---5----5---7--8-5----5---5--3---------|----------------|
-|-----------3---3-----3----3---3---------3---3-------6--3---|----------------|
-|-----------------------------------------------------------|----------------|
-|-----------------------------------------------------------|----------------|
-|-----------------------------------------------------------|----------------|
-|-----------------------------------------------------------|----------------|
 G2

-|-----------------------------------------------------------|----------------|
-|-------------------------10-------------------12-10--------|----------------|
-|-------------------------10--12b14-12-10------12-10--------|----------------|
-|----------------------------------------12-10------12-12-x-|----------------|
-|-------------------------------------------10------------x-|----------------|
-|-----------------------------------------------------------|----------------|
 G3

-|---------------------------------------------------------------------------|
-|--3--1--0-------------3----1---0-----------------3---1---0-----------------|
-|-----------2--0h2------------------2---0---------------------2------0h2----|
-|-----------------------------------------3-0----------------------------0--|
-|---------------------------------------------------------------------------|
-|---------------------------------------------------------------------------|
 G1

-|-10--8--7------------10----8---7----------------10---8---7-----------------|
-|----------10--8h10----------------10---8p6------------------10------8p6----|
-|------------------7------------------------7----------------------------7--|
-|---------------------------------------------------------------------------|
-|---------------------------------------------------------------------------|
-|---------------------------------------------------------------------------|
 G2

-|---------------------------------------------------------------------------|
-|-10----------------13b15--13--10----------10--13b15--13--10----------------|
-|-10---x---------------------------12-10h12-------------------12--10-12-10--|
-|------x--------------------------------------------------------------------|
-|---------------------------------------------------------------------------|
-|---------------------------------------------------------------------------|
 G3

-|---------------------------------------------------------------|------------|
-|---3----1----0--------------------3----1----0------------------|------------|
-|------------------2------0-----------------------2------0------|------------|
-|---------------------------3-0----------------------------3-0--|------------|
-|---------------------------------------------------------------|------------|
-|---------------------------------------------------------------|------------|
 G1

-|--10----8----7-------------------10----8----7------------------|------------|
-|-----------------10------8p6--------------------10------8p6----|------------|
-|-----------------------------7------------------------------7--|------------|
-|---------------------------------------------------------------|------------|
-|---------------------------------------------------------------|------------|
-|---------------------------------------------------------------|------------|
 G2

-|---------------------------------------------------------------|------------|
-|-13b15--13--10-----------------13b15--13---10------------------|------------|
-|-----------------12--------10-------------------12--10-12-10---|------------|
-|----------------------10h12------------------------------------|------------|
-|---------------------------------------------------------------|------------|
-|---------------------------------------------------------------|------------|
 G3

-|--------------------------------------------------------------|-------------|
-|---3----1----0-----------------------3---1---0----------------|-------------|
-|------------------2---------0h2------------------2-----0h2----|-------------|
-|--------------------------------0--------------------------0--|-------------|
-|--------------------------------------------------------------|-------------|
-|--------------------------------------------------------------|-------------|
 G1

-|--10----8----7-------7---------10--------8---7----------------|-------------|
-|-----------------10-----------------------------10----8h10----|-------------|
-|-----------------------------------------------------------7--|-------------|
-|--------------------------------------------------------------|-------------|
-|--------------------------------------------------------------|-------------|
-|--------------------------------------------------------------|-------------|
 G2

-|--------------------------------------------------------------|-------------|
-|-13b16--r15--10-----------------------------------------------|-------------|
-|-------*b14------12b14--12-10-------------12--12--------------|-------------|
-|------------------------------12----------12--12-10h12--------|-------------|
-|--------------------------------------------------------------|-------------|
-|--------------------------------------------------------------|-------------|
 G3      *pre-bend

-|-----------------------------------------------------------|----------------|
-|---3---1---0-----------------3-----1-----0-----------------|----------------|
-|---------------2----0h2------------------------2----0h2----|----------------|
-|------------------------0-------------------------------0--|----------------|
-|-----------------------------------------------------------|----------------|
-|-----------------------------------------------------------|----------------|
 G1

-|--10---8---7----------------10-----8-----7-----------------|----------------|
-|--------------10----8h10----------------------10----8h10---|----------------|
-|------------------------7-------------------------------7--|----------------|
-|-----------------------------------------------------------|----------------|
-|-----------------------------------------------------------|----------------|
-|-----------------------------------------------------------|----------------|
 G2

-|-----------------------------------------------------------|----------------|
-|---------------------------13\12----------12-----x-x-------|----------------|
-|--10------------12-x--x-x--13\12--10------12-x-x-x-x-------|----------------|
-|--10--10h12p10--12-x--x-x--13\12--10--12--12-x-x-----10h12-|----------------|
-|---------------------------------------------x-x-----------|----------------|
-|--------------------------------------10-------------------|----------------|
 G3

-|-----------------------------------------------------------------|----------|
-|-----------------------------------------------------------------|----------|
-|--2--0--------2---2--0--------2---2--0--------2---2--0--------2--|----------|
-|--------3--0------------3--0------------3--0------------3--0-----|----------|
-|-----------------------------------------------------------------|----------|
-|-----------------------------------------------------------------|----------|
 G1

-|--10----8----7--------------------10----8----7-------------------|----------|
-|------------------10-----8h10---------------------10-----8h10----|----------|
-|------------------------------7-------------------------------7--|----------|
-|-----------------------------------------------------------------|----------|
-|-----------------------------------------------------------------|----------|
-|-----------------------------------------------------------------|----------|
 G2

-|-----------------------------------------------------------------|----------|
-|--10-----13\12------------------------------12-10---10--12-10----|----------|
-|--10h12--13\12------------------------------12-10---10--12-10----|----------|
-|---------------12---12-----12p10--12--------------------------12-|----------|
-|-----------------------10------------12-10-----------------------|----------|
-|-----------------------------------------------------------------|----------|
 G3

-|------------------------------------------------------------------|---------|
-|------------------------------------------------------------------|---------|
-|---2--0--------2---2--0--------2---2--0--------2---2--0--------2--|---------|
-|---------3--0------------3--0------------3--0------------3--0-----|---------|
-|------------------------------------------------------------------|---------|
-|------------------------------------------------------------------|---------|
 G1

-|--10----8----7---------------------10----8----7-------------------|---------|
-|------------------10-----8h10----------------------10-----8h10----|---------|
-|------------------------------7--------------------------------7--|---------|
-|------------------------------------------------------------------|---------|
-|------------------------------------------------------------------|---------|
-|------------------------------------------------------------------|---------|
 G2

-|-10-----13\12-----10----------------------------------------------|---------|
-|-10-----13\12-----10----------------------------------------------|---------|
-|--------13\12-----10----------------------------------*10tr12-----|---------|
-|------------------------12---12--12--------10-----12--------------|---------|
-|--------------------------------------10h12--10h12----------------|---------|
-|------------------------------------------------------------------|---------|
 G3                                                     *trill

-|----------------------------------------------------------------------||----|
-|--3----1----0----------------*0h3p0h3p0h3p0h3p0h3p0h3p0h3p0h3p0h3p0h3-||----|
-|-----------------2-----0h2--------------------------------------------||----|
-|---------------------------0------------------------------------------||----|
-|----------------------------------------------------------------------||----|
-|----------------------------------------------------------------------||----|
 G1                           *not sure, sounds close enough =)     Fade out

-|-10----8----7----------------*0h3p0h3p0h3p0h3p0h3p0h3p0h3p0h3p0h3p0h3-||----|
-|----------------10-----8h10-------------------------------------------||----|
-|---------------------------7------------------------------------------||----|
-|----------------------------------------------------------------------||----|
-|----------------------------------------------------------------------||----|
-|----------------------------------------------------------------------||----|
 G2                                                                 Fade out

-|--10-----12/13--------------------------------------------------------||----|
-|--10-----12/13--------------------------------------------------------||----|
-|--10-----12/13----10--------------------------------------------------||----|
-|------------------10--------------------------------------------------||----|
-|----------------------------------------------------------------------||----|
-|----------------------------------------------------------------------||----|
 G3
Tap to rate this tab
# A B C D E F G H I J K L M N O P Q R S T U V W X Y Z