Song name
# A B C D E F G H I J K L M N O P Q R S T U V W X Y Z

Pearl Jam - Indifference tab

Artist: Pearl Jam
Song: Indifference
Album: Vs.
Year: 1993
Tabbed by: MhStrat


Verse:
e|----12--10---------------------------12--10---------------------------------------------|
B|------------12--10---------------------------12--10-------------------------------------|
G|--------------------11-12-14-12----------------------11-12-14-12------------------------|
D|----------------------------------------------------------------------------------------|
A|----------------------------------------------------------------------------------------|
E|----------------------------------------------------------------------------------------|

                                                                 The second time 
                                                              you can add this part:
e|----12--10---------------------------12--10---------------------------------------------|
B|------------12--10---------------------------12--10-------------------------------------|
G|--------------------11-12-14-12----------------------11-12-14-12---11h12p11-9-----------|
D|----------------------------------------------------------------------------------------|
A|----------------------------------------------------------------------------------------|
E|----------------------------------------------------------------------------------------|

Chorus riff:
e|-------------15---------------------------15--------------------------------------------|
B|----17p15-----------17p15--------17p15----------17p15-----------------------------------|
G|----------16-----16-------16-----------16----16-------16--------------------------------|
D|----------------------------------------------------------------------------------------|
A|----------------------------------------------------------------------------------------|
E|----------------------------------------------------------------------------------------|

e|-------------15---------------------------15--------------------------------------------|
B|----17p15-----------17p15--------17p15----------17p15-------15-15-17--17b19r17p15-17----|
G|----------16-----16-------16-----------16----16-------16--------------------------------|
D|----------------------------------------------------------------------------------------|
A|----------------------------------------------------------------------------------------|
E|----------------------------------------------------------------------------------------|

Outro:
e|----------------------------------------------------------------------------------------|
B|--------20----20----20----20----20----20----20----20----20----20--20--20--20------------|
G|----19----19----19----19----19----19----19----19----19----19--19--19--19--19------------|
D|----------------------------------------------------------------------------------------|
A|----------------------------------------------------------------------------------------|
E|----------------------------------------------------------------------------------------|

e|----------------------------------------------------------------------------------------|
B|----20--20--20--20--20--20--20--20--20--20--20----20----20----20----20------------------|
G|----19--19--19--19--19--19--19--19--19--19--19----19----19----19----19------------------|
D|----------------------------------------------------------------------------------------|
A|----------------------------------------------------------------------------------------|
E|----------------------------------------------------------------------------------------|

e|----------------------------------------------------------------------------------------|
B|----17----17----17----17----17----17----17----17----17----17----17----17----------------|
G|------16----16----16----16----16----16----16----16----16----16----16----16--------------|
D|----------------------------------------------------------------------------------------|
A|----------------------------------------------------------------------------------------|
E|----------------------------------------------------------------------------------------|


This is my First tab and Iím not sure itís 100% correct but it sounds good to me and I tought it
sounded better than all the other tabs of this song (at least the ones I've seen). Please rate!
Tap to rate this tab
# A B C D E F G H I J K L M N O P Q R S T U V W X Y Z