Song name
# A B C D E F G H I J K L M N O P Q R S T U V W X Y Z

Pearl Jam - Army Reserve tab

Army Reserve - Pearl Jam
(Mike McCready's guitar)


-|--------------------------------------------------------12-12-12-10-10------|
-|----------------------------------------------------------------------------|
-|----------------------------------------------------------------------------|
-|----------------------------------------------------------------------------|
-|----------------------------------------------------------------------------|
-|----------------------------------------------------------------------------|

                                                        How
-|----------------------------------------------------------------------------|
-|-------------------------------------------------10-10h12v------------------|
-|----------------------------------------------------------------------------|
-|----------------------------------------------------------------------------|
-|----------------------------------------------------------------------------|
-|----------------------------------------------------------------------------|

long must  she stand                               before the
-|----------------12-12-12-10-------------------------------------------------|
-|----------------------------12v---------------------------------------------|
-|----------------------------------------------------------------------------|
-|----------------------------------------------------------------------------|
-|----------------------------------------------------------------------------|
-|----------------------------------------------------------------------------|

ground, it gives way                    to an  endless        fall
-|------------------------------12--14----------------------------------------|
-|----------------------------------------------------------------------------|
-|---------------------------------------------------------------------11--9--|
-|----------------------------------------------------------------------------|
-|----------------------------------------------------------------------------|
-|----------------------------------------------------------------------------|

she can feel this war     on her face              stars
-|-------------------------------------------------------------10-10----------|
-|--------------------------------------------------------------------12------|
-|--11--9---------------------------------------------------------------------|
-|----------------------------------------------------------------------------|
-|----------------------------------------------------------------------------|
-|----------------------------------------------------------------------------|

on   her        pillow            she's folding in darkness begging for
-|----------------------------------------------------------------------------|
-|----------------------------10-10-10--10-10h12------------------------------|
-|----------------------------------------------------------------------------|
-|----------------------------------------------------------------------------|
-|----------------------------------------------------------------------------|
-|----------------------------------------------------------------------------|

            I'm not blind  I can see it coming.      Looks like lightning
-|----------|------------------------------------------------------------------|
-|----------|------------------------------------------------------------------|
-|----------|--7----9---10----------12--11-12-12p117------7----9-----10--------|
-|----------|------------------------------------------------------------------|
-|----------|------------------------------------------------------------------|
-|----------|------------------------------------------------------------------|

in my child's eye.     I'm not frantic, I can feel it coming. Violently shakes
-|-----------------------------------------------------------------------------|
-|-----------------------------------------------------------------------------|
-|--12---11-12-11------7----9---10---------12-11-12-12p117-7-----9----10-------|
-|-----------------------------------------------------------------------------|
-|-----------------------------------------------------------------------------|
-|-----------------------------------------------------------------------------|

my      body                                                Her son's
-|----------|-----------------------------------------------------------------|
-|----------|-----------------------------------------------------------------|
-|---12-----|--11-------------------------------------------------------------|
-|----------|-----------------------------------------------------------------|
-|----------|-----------------------------------------------------------------|
-|----------|-----------------------------------------------------------------|

slanted                        Always giving her the sideways eye
-|------10-10-12-10----10-----------------------------------------------------|
-|------------------12----12------------------------------------10------------|
-|-----------------------------------------------------------------12-12-12---|
-|----------------------------------------------------------------------------|
-|----------------------------------------------------------------------------|
-|----------------------------------------------------------------------------|

an empty chair where dad  sits                    how loud can silence
-|----------------------------------------------------------------------------|
-|----------------------------------------------------------------------------|
-|--11-9-----/12-12-12-11-9---------------------------------------------------|
-|----------------------------------------------------------------------------|
-|----------------------------------------------------------------------------|
-|----------------------------------------------------------------------------|


get?            And mom, she reassures             to contain him
-|----------------------------------------------------------------------------|
-|----------------------------------------------------------------------------|
-|----------------------------------------------------------------------------|
-|----------------------------------------------------------------------------|
-|----------------------------------------------------------------------------|
-|----------------------------------------------------------------------------|

but it's  becoming a lie              she tells herself    and anyone
-|--------------------------------------------------------------10-10---------|
-|---------------------------------------------------------------------12-----|
-|----------------------------------------------------------------------------|
-|----------------------------------------------------------------------------|
-|----------------------------------------------------------------------------|
-|----------------------------------------------------------------------------|

else      Father is risking his life for our freedoms    I'm not blind, I

-|-------------------------------------------------------|--------------------|
-|--------8----8---------8-10----------------------------|--------------------|
-|-------------------------------------------------------|---7---9---10-------|
-|-------------------------------------------------------|--------------------|
-|-------------------------------------------------------|--------------------|
-|-------------------------------------------------------|--------------------|

can see it coming. Looks like lightning in my child's eye. I'm not
-|----------------------------------------------------------------------------|
-|----------------------------------------------------------------------------|
-|----12--11-12-12p11-7-7---9---10--------12-11-12-12-11-7----7----9----------|
-|----------------------------------------------------------------------------|
-|----------------------------------------------------------------------------|
-|----------------------------------------------------------------------------|

frantic, I can feel it coming. Darling you'll save me if you save
-|----------------------------------------------------------------------------|
-|----------------------------------------------------------------------------|
-|--10------------12-11-12-11-7------7----9-----10------------12--------------|
-|----------------------------------------------------------------------------|
-|----------------------------------------------------------------------------|
-|----------------------------------------------------------------------------|



yourself.                                              Repeat until End
-|------------|---------------------------------------------------------------|
-|------------|---------------------------------------------------------------|
-|-11-12--11--|----------------12-12--12-12---12-11--------------12-12--11----|
-|------------|---------------------------------------------------------------|
-|------------|---------------------------------------------------------------|
-|------------|---------------------------------------------------------------|

-|----------------------------------------------------------------------------|
-|----------------------------------------------------------------------------|
-|--12-12---11---9----------12-12-12--11----11---12----14vv----12---11--------|
-|----------------------------------------------------------------------------|
-|----------------------------------------------------------------------------|
-|----------------------------------------------------------------------------|

-|----------------------------------------------------------------------------|
-|--------------------------------------------12--------12-13---15------------|
-|------11-11--11-11-11-12-14-12----12--11------------------------------------|
-|----------------------------------------------------------------------------|
-|----------------------------------------------------------------------------|
-|----------------------------------------------------------------------------|

-|----------------------------------------------------------------------------|
-|-----15---15----15---15----15----/17------------17----15h17----/19--19------|
-|----------------------------------------------------------------------------|
-|----------------------------------------------------------------------------|
-|----------------------------------------------------------------------------|
-|----------------------------------------------------------------------------|


        fade out
-|----------------------------------------------------------------------------|
-|--17--15--19-19--17-15--17--19--20--19--------------------------------------|
-|----------------------------------------------------------------------------|
-|----------------------------------------------------------------------------|
-|----------------------------------------------------------------------------|
-|----------------------------------------------------------------------------|
Tap to rate this tab
 
# A B C D E F G H I J K L M N O P Q R S T U V W X Y Z