Song name
# A B C D E F G H I J K L M N O P Q R S T U V W X Y Z

Pearl Jam - Corduroy Live tab

-----------------------------------------------------------------------------
                        Corduroy (live)- Pearl Jam
-----------------------------------------------------------------------------
Tabbed by: ehbacon, and Jared Brustman
E-mail: ehbacon@att.net

Tuning: Standard


Intro (main riff): played 4 times

e|----------------------------|
B|----------------------------|
G|--4-4--4-4-4--4-4----4--4---|
D|-2-2-22-2-2-----------------|
A|-------------0-0-02-2--2-2--|
E|----------------------------|

Verse: played 5 times

e|-----------------------|
B|-----------------------|
G|-3-3-3-3-2-2-----------|
D|-3-3-3-3-2-2-5-55-555--|
A|-3-3-3-3-2-2-5-55-555--|
E|-------------3-33-333--|

chorus: played 4 times

e|------------------|
B|------------------|
G|------------------|
D|------------------|
A|-10101010-9999-75-|
E|-8-8-8-8--7777-53-|

interlude: played 8 times

e|-------------------|
B|-------------------|
G|-------------------|
D|-9-------10--------|
A|-9-(x16)-10-(x16)--|
E|-7-------8---------|


order:

Intro (clean)
verse (distorted)
chorus (distorted)
main riff (x2 distorted)
verse (distorted)
chorus (distorted)
interlude (distorted)
chorus (distorted)
verse (distorted)
main riff (clean)
solo (usually improvised, they change it alot)

 

************************************

| /   slide up
| \   slide down
| h   hammer-on
| p   pull-off
| ~   vibrato
| +   harmonic
| x   Mute note
| b   Bend
| pb  Pre-bend
| br  Bend release
| pbr Pre-bend release
| brb Bend release bend

************************************
Tap to rate this tab
 
# A B C D E F G H I J K L M N O P Q R S T U V W X Y Z