Song name
# A B C D E F G H I J K L M N O P Q R S T U V W X Y Z

Pearl Jam - Mind Your Manners tab

-----------------------------------------------------------------------------
                        Mind Your Manners - Pearl Jam
-----------------------------------------------------------------------------
Tabbed by: ehbacon
E-mail: ehbacon@att.net

Tuning: standard

Intro (x4): mild distortion

e|------------------------------|
B|------------------------------|
G|------------------------------|
D|-101099-999-101099-999-101099-|
A|--X-XXX-XXX--X-XXX-XXX--X-XXX-|
E|--8-877-777--8-877-777--8-877-|


Verse (x4): full distortion

e|-------------------------------------|
B|-------------------------------------|
G|-------------1111X9------------------|
D|-(7)9-999999-1111X9-79-999999-1010X9-|
A|-(7)9-999999-9-9-X7-79-999999-1010X9-|
E|-(5)7-777777--------57-777777-8-8-X7-|
  I've got an unfortunate feelin'...


Chorus (x2): full distortion

e|------------------|
B|------------------|
G|-7---5-7-5------7-|
D|-7---5-7-5-7----7-| (let every chord ring)
A|-5---3-5-3-7----5-|
E|-----------5------|
  All Along They're sayin'...


Interlude: 

Guitar 1 (x3): low distortion
 
                  1st 2nd
e|---------------|---|---|
B|---------------|---|---|
G|---------------|---|---|   (2nd ending played the 3rd time)
D|-7----5----4---|-5-|-2-|   (let every chord ring)
A|-7----5----4---|-5-|-2-|
E|-5----3----2---|-3-|-0-|
   self-realized and metaphysically redeem...


Guitar 2 (starting at the 3rd time for Guitar 1): clean with delay

e|------------------------------------------------|
B|-15---------------------------------------------|
G|-13b-(x16-hold-bend)-15-------15-------15-------|
D|---------------------13-(x16)-12-(x16)-13-(x16)-|
A|------------------------------------------------|
E|------------------------------------------------|


Solo:

Guitar 1: full distorion

e|-----------------------------------------------------------------------|
B|-10------------------10~--10-----12-----------------15-----------------|
G|-12b-(x16-hold-bend)-------------14b-(x4-hold-bend)-17b-(x4-hold-bend)-|
D|-----------------------------12----------------------------------------|
A|-----------------------------------------------------------------------|
E|-----------------------------------------------------------------------|

e|-----------------------------------------------------------------------|
B|-14-----------------7~---5-----------------3---------------------------|
G|-16b-(x3-hold-bend)-9b~--7b-(x4-hold-bend)-5b-(x3-hold-bend)-4\\\\\----|
D|-----------------------------------------------------------------------|
A|-----------------------------------------------------------------------|
E|-----------------------------------------------------------------------|

e|----------------------191919191919191921b--191919191919191921b-|
B|---------------13b+--------------------------------------------|
G|---------------------------------------------------------------|
D|-777788889999--------------------------------------------------|
A|-XXXXXXXXXXXX--------------------------------------------------|
E|-555566667777--------------------------------------------------|

Guitar 2 plays the verse to back up the solo.


Bridge:

Guitar 1 (x3): mild distortion with delay

e|--------------------------------------------------------------------------|
B|------------------------------12~-------------------------------12\\\\\\\-|
G|--------------------------------------------------------------------------|
D|-101099-999-101099-999-101099------101099-999-101099-999-101099-----------|
A|--X-XXX-XXX--X-XXX-XXX--X-XXX-------X-XXX-XXX--X-XXX-XXX--X-XXX-----------|
E|--8-877-777--8-877-777--8-877-------8-877-777--8-877-777--8-877-----------|
  go to heaven   that's swell   how do you like it?   livin' hell!


Guitar 2 (x6): full distortion

e|-----------------------------------|
B|-----------------------------------|
G|----------99999999----------7---7--|
D|-99999999-99999999-44444444-7-7-7--|
A|-99999999-77777777-44444444-5-7-5--|
E|-77777777----------22222222---5----|


Outro: full distortion

e|----------------|
B|----------------|
G|-7---7----------|
D|-7-7-7-7\\\\\\--|
A|-5-7-5-7\\\\\\--|
E|---5---5\\\\\\--|


Order:

Intro
Verse
Chorus
Verse
Chorus
Interlude
Solo
Chorus
Interlude
Bridge
Outro
************************************
| /   slide up
| \   slide down
| ~   vibrato
| +   harmonic
| x   Mute note
| b   Bend
************************************
Tap to rate this tab
# A B C D E F G H I J K L M N O P Q R S T U V W X Y Z