Song name
# A B C D E F G H I J K L M N O P Q R S T U V W X Y Z

Pearl Jam - I Got Id tab

-|-----10-----10--------10----------x-10-10--------10-x-------10-10--10-10-|--|
-|-10--10--10-10--0-11--11-x-10-10--x-10-10-10-11--11-x-x-10---------10-10-|--|
-|-11------11-------10-----x----11----------11-10-------x-11---------------|--|
-|-------------------------------------------------------------------------|--|
-|-------------------------------------------------------------------------|--|
-|-------------------------------------------------------------------------|--|
 G1

-|-----------8-8----8----------------10-10------10-----------10--------------|
-|-10-\-8-8----8-8------8--8-/-10-10----10---10-10-10-0--11--11-x-10-10------|
-|-11-\-9-9----9-9----9-9--9-/-11-11---------11----11----10-----x----11------|
-|---------------------------------------------------------------------------|
-|---------------------------------------------------------------------------|
-|---------------------------------------------------------------------------|
                                         w/ Fill 1

-|-10-10-----------------10---10-----10--10-10----------------------------|---|
-|--------10-10-10-0-11--11-x-10-10--10--10-10-10-\-8-8--8-------8-8-/-10-|---|
-|--------11-11-11---10----------11------11-11-11-\-9-9--9-9-9-9-9-9-/-11-|---|
-|------------------------------------------------------------------------|---|
-|------------------------------------------------------------------------|---|
-|------------------------------------------------------------------------|---|
             w/ Fill 2                                    pm----|

-|----------------------|-------------------------|---------------------------|
-|----------------------|-------------------------|---------------------------|
-|------------------x-\-|-------------------7\5---|---------------------------|
-|------------------x-\-|-------------------------|---------------------------|
-|----------------------|-------------------------|---------------------------|
-|----------------------|-------------------------|---------------------------|
 Fill 1 (feedback)       Fill 2 (feedback)

-|---------10---------10-10-10--10-------------------10----------------------|
-|-10---10----10-0----11-11-10-----10-x-0-11--11-10--10-10-10-\-8-8-8-8-8-8--|
-|-11---11---------10-------11--------x---10--10-11-----11-11-\-9-9-9-9-9-9--|
-|---------------------------------------------------------------------------|
-|---------------------------------------------------------------------------|
-|---------------------------------------------------------------------------|
 Verse "My lips are shakin'..."             "Been a month..."      p.m.----|

-|-8-8---------|-10-------10-------10-----10--10--------10-----10--10-----|---|
-|-8-8--/10-10-|-10---10-----10-0--11--11-10--10-10-0-0-11--10-10--10-10--|---|
-|-9-9--/11----|-11---11-----------10--10-11-----11-----10-----11-----11--|---|
-|-------------|----------------------------------------------------------|---|
-|-------------|----------------------------------------------------------|---|
-|-------------|----------------------------------------------------------|---|
                "Only advantage..."                      "Picture a cup..."

-|--------8-------------------------------|------------------------|----------|
-|-10-\-8-8-8-8-8-8-8-8-8-8-8-8-8-8-8-8-0-|------------------------|----------|
-|-11-\-9-9-9-9-9-9-9-9-9-9-9-9-9-9-9-9-0-|-5-5-5-5-5-5-5-5-5-5-5--|----------|
-|----------------------------------------|-5-5-5-5-5-5-5-5-5-5-5--|----------|
-|----------------------------------------|-3-3-3-3-3-3-3-3-3-3-3--|----------|
-|----------------------------------------|------------------------|----------|
                    Enter G2               G2

-|-2-----2-----3-----|---------------------------2-2-2------------2--------|--|
-|-3-----2-----3-----|-3-----------3-----------3---------------3-----------|--|
-|-4-----3-----4-----|-4-----------4-----------4---------------4-----------|--|
-|-4-----4-----5-----|-4---4---5---4---4---5---4-------4---5---4----4---5--|--|
-|-2-----4-----5-----|-2---4---5---2---4---5---2-------4---5---2----4---5--|--|
-|-------2-----3-----|-----2---3-------2---3-----------2---3--------2---3--|--|
 Pre-Chorus, G1    4x Pre-Chorus, G2

-|-2---0---0---3---|-2--2-------3--0---3--3---2--------3--0---3--3---|--------|
-|-3---1---1---3---|-3-----1--1----1---3--3---3---1-------1---3------|--------|
-|-2---2---0---0---|-2-----2-------0---0------2---2--2----0---0------|--------|
-|-0---2---2---0---|-0-----2-------2---0------0---2-------2---0------|--------|
-|-----0---3---2---|-------0-------3---2----------0-------3---2------|--------|
-|-------------3---|-------------------3----------------------3------|--------|
 Chorus, G1      2x Chorus, G2

-|-------------------------------------------------------------------------|--|
-|-10-10-10-10-10-10-10-10-11-11-11-10-10-10-10-10-11-11-11-10-10-10-10-10-|--|
-|-11-11-11-11-11-11-11-11-10-10-10-11-11-11-11-11-10-10-10-11-11-11-11-11-|--|
-|-12-12-12-12-12-12-12-12-12-12-12-12-12-12-12-12-12-12-12-12-12-12-12-12-|--|
-|-------------------------------------------------------------------------|--|
-|-------------------------------------------------------------------------|--|
 Bridge, G1

-|-------------------------|--------------------------------------------------|
-|--8--8--8--8--8--8--8--8-|--------------------------------------------------|
-|--9--9--9--9--9--9--9--9-|--------------------------------------------------|
-|-10-10-10-10-10-10-10-10-|--------------------------------------------------|
-|-------------------------|--------------------------------------------------|
-|-------------------------|--------------------------------------------------|
                          Repeat last 2 lines once

-|---------------------------------------------------------------------|------|
-|----------11--10----11--10-------------------------------------------|------|
-|-10--------------------------12--\9-----------3-2---0---3-2--0-------|------|
-|-12---12----------------------------2---0-------------3--------3-2---|------|
-|--------------------------------------------2------------------------|------|
-|---------------------------------------------------------------------|------|
 Bridge, G2                                 flick toggle switch---|

-|-------------------10----------10---------------8---8------------|----------|
-|-10--10-10-11--10-----10-0-11--10--10-10\8-8--8-8-----8--8-/-10--|----------|
-|-11-----11-10--11-----11---10--11--11-11\9-9--9-9-----9--9-/-11--|----------|
-|-----------------------------------------------------------------|----------|
-|-----------------------------------------------------------------|----------|
-|-----------------------------------------------------------------|----------|
 Verse,G1 "On empty shells..."            "...who i could even ask"

-|------10--10------10--10--10------10-----10--10-----------------------|-----|
-|-10---10-----10-0-11--10-----10-0-11--10-10-----10-10-\-8-8-8-8-8-8-8-|-----|
-|-11---11-----11---10--11-----11---10--11-11-----11-11-\-9-9-9-9-9-9-9-|-----|
-|----------------------------------------------------------------------|-----|
-|----------------------------------------------------------------------|-----|
-|----------------------------------------------------------------------|-----|
 "So I'll just lie alone..."        "Where I'm not ugly..."

-|-------------------------------|---------------------|----------------------|
-|--8--8--8--8--8--8--8--8--8--8-|---------------------|----------------------|
-|--9--9--9--9--9--9--9--9--9--9-|-5-5-5-5-5-5-5-5-5-5-|----------------------|
-|-10-10-10-10-10-10-10-10-10-10-|-5-5-5-5-5-5-5-5-5-5-|----------------------|
-|-------------------------------|-3-3-3-3-3-3-3-3-3-3-|----------------------|
-|-------------------------------|---------------------|----------------------|
  Enter G2                        G2

-|-2-----2-----3-----|---------------------------------------------------|----|
-|-3-----2-----3-----|-3-----------3----------7-------------7------------|----|
-|-4-----3-----4-----|-4-----------4----------9b11----------9b11---------|----|
-|-4-----4-----5-----|-4---4---5---4---4---5--------4---5--------4---5---|----|
-|-2-----4-----5-----|-2---4---5---2---4---5--------4---5--------4---5---|----|
-|-------2-----3-----|-----2---3-------2---3--------2---3--------2---3---|----|
 Pre-Chorus, G1    4x Pre-chorus, G2

-|-2-----0-----0-----3-----|--2--0---3-------------0-------3-|----------------|
-|-3-----1-----1-----3-----|-----------------1--3-----0-0--0-|----------------|
-|-2-----2-----0-----0-----|-----------2-2------------0-0--0-|----------------|
-|-0-----2-----2-----0-----|--------------------------0-0----|----------------|
-|-------0-----3-----2-----|---------------------------------|----------------|
-|-------------------3-----|---------------------------------|----------------|
 Chorus, G1              4x Chorus, G2

-|-2---2---3------0--0-----2--2--0-----------------0------------0-0-0-|-------|
-|-3-------1---3-------3---3-------3--------1---3-----0-0---3-3-------|-------|
-|-2-----------------------2----------------0---------0-0-------------|-------|
-|-0-----------------------0----------2--2--2---------0-0-------------|-------|
-|------------------------------------------3-------------------------|-------|
-|--------------------------------------------------------------------|-------|
 "I walked the line..."                "When you held me close..."

-|-2---2--0-----------3------0-----------0-|----------------------------------|
-|-3--------3-3--1--3-----1------0-0---3---|----------------------------------|
-|-2-----------------------------0-0-------|----------------------------------|
-|-0-----------------------------0-0-------|----------------------------------|
-|-----------------------------------------|----------------------------------|
-|-----------------------------------------|----------------------------------|
  "I payed the price.."

-|-------------------------------------------------------------------------|--|
-|-10-10-10-10-10-10-10-10-11-11-11-10-10-10-10-10-11-11-11-10-10-10-10-10-|--|
-|-11-11-11-11-11-11-11-11-10-10-10-11-11-11-11-11-10-10-10-11-11-11-11-11-|--|
-|-12-12-12-12-12-12-12-12-12-12-12-12-12-12-12-12-12-12-12-12-12-12-12-12-|--|
-|-------------------------------------------------------------------------|--|
-|-------------------------------------------------------------------------|--|
 Solo Rhythm, G1

-|-------------------------|--------------------------------------------------|
-|--8--8--8--8--8--8--8--8-|--------------------------------------------------|
-|--9--9--9--9--9--9--9--9-|--------------------------------------------------|
-|-10-10-10-10-10-10-10-10-|--------------------------------------------------|
-|-------------------------|--------------------------------------------------|
-|-------------------------|--------------------------------------------------|
                       Repeat last 2 lines 6 times

-|------------------------------------------------------------------------|---|
-|-------11--11-11--11-10--11p10------------11-11--11-11-11-10------------|---|
-|-10----------------------------12-10----10--------------------12--10\9--|---|
-|-12----------------------------------12---------------------------------|---|
-|------------------------------------------------------------------------|---|
-|------------------------------------------------------------------------|---|
 Solo, G2

-|-----------------------------------------------------------|----------------|
-|----------------------11-10--------11-10-------------------|----------------|
-|-12b14--12b14-12b14--------12b14--------12b14---------0----|----------------|
-|-----------------------------------------------------------|----------------|
-|------------------------------------------------10-12------|----------------|
-|-----------------------------------------------------------|----------------|


-|---------------------------------|-10--------------------------------|------|
-|---------------------------------|--------------------11vvvv---10----|------|
-|--10-10-10-11--10-10-10-11\------|----12b-10----10-------------------|------|
-|---x--x--x--x---x--x--x--x---10--|-----------12----12----------------|------|
-|---8--8--8--9---8--8--8--9\---x--|-----------------------------------|------|
-|------------------------------8--|-----------------------------------|------|


-|----------------------------------------|-10----------------------|---------|
-|----------11--p10-----------------------|----13b15---15r13--13b15-|---------|
-|-12-10------------12-10--12*--*---------|-------------------------|---------|
-|-------12-------------------------------|-------------------------|---------|
-|----------------------------------------|-------------------------|---------|
-|----------------------------------------|-------------------------|---------|
                            *whammy dives

-|-----12b13r12--12----12b13r12--13-13p12-10-10-10----10----10----10-|---------|
-|-11---------------11--------------------------13b15----15----15----|---------|
-|-------------------------------------------------------------------|---------|
-|-------------------------------------------------------------------|---------|
-|-------------------------------------------------------------------|---------|
-|-------------------------------------------------------------------|---------|
                                                  hold bend--------------------|

-|------------------12b13--------------12b13----12-13-12-10------10------10--|
-|-15r13-10-13-10---------11\10-11-10--------11-------------13b15---13b15----|
-|---------------------------------------------------------------------------|
-|---------------------------------------------------------------------------|
-|---------------------------------------------------------------------------|
-|---------------------------------------------------------------------------|


-|-----------------10-13b14---|-----------------------------------------------|
-|-15r13-10-13b15-------------|-----------------------------------------------|
-|----------------------------|-----------------------------------------------|
-|----------------------------|-----------------------------------------------|
-|----------------------------|-----------------------------------------------|
-|----------------------------|-----------------------------------------------|


-|-10---10-----------------10--10---------------------------------|-----------|
-|-10---11--10-10--10-10-0-11--10--10-10-10-\-8--8-8-8-8-8-8-/-10-|-----------|
-|-11---10-----11--11-11---10--11--11-11-11-\-9--9-9-9-9-9-9-/-11-|-----------|
-|----------------------------------------------------------------|-----------|
-|----------------------------------------------------------------|-----------|
-|----------------------------------------------------------------|-----------|
 Outro, G2

-|-10--10----------10--10-------10--10------------------------------10---10--|
-|-10--10--10-10-0-11--10--10-0-11--10--10-10-10-\-8-8-8-8----------11---10--|
-|-11--11--11-11---10--11--11---10--11--11-11-11-\-9-9-9-9-9-9-9-9--10---11--|
-|---------------------------------------------------------------------------|
-|---------------------------------------------------------------------------|
-|---------------------------------------------------------------------------|
                                                                       End
Tap to rate this tab
# A B C D E F G H I J K L M N O P Q R S T U V W X Y Z