Song name
# A B C D E F G H I J K L M N O P Q R S T U V W X Y Z

Pearl Jam - Mankind tab

-|-----------------|-----------------|-----------------|-----------------|----|
-|-----------------|-----------------|-----------------|-----------------|----|
-|-----------------|-9-9-9-9-9-9-9-x-|-6-6-6-6-6-6-6-x-|-----------------|----|
-|-9-9-9-9-9-9-9-x-|-9-9-9-9-9-9-9-x-|-6-6-6-6-6-6-6-x-|-6-6-6-6-6-6-6-x-|----|
-|-9-9-9-9-9-9-9-x-|-7-7-7-7-7-7-7-x-|-4-4-4-4-4-4-4-x-|-6-6-6-6-6-6-6-x-|----|
-|-7-7-7-7-7-7-7-x-|-----------------|-----------------|-4-4-4-4-4-4-4-x-|----|
   1 e 2 e 3 e 4 e   1 e 2 e 3 e 4 e   1 e 2 e 3 e 4 e   1 e 2 e 3 e 4 e

-|-----------------|-----------------|---------|-----------------|------------|
-|-----------------|-----------------|---------|-----------------|------------|
-|-----------------|-9-9-9-9-9-9-9-x-|-6-6-6-x-|-----------------|------------|
-|-9-9-9-9-9-9-9-x-|-9-9-9-9-9-9-9-x-|-6-6-6-x-|-6-6-6-6-6-6-6-x-|------------|
-|-9-9-9-9-9-9-9-x-|-7-7-7-7-7-7-7-x-|-4-4-4-x-|-6-6-6-6-6-6-6-x-|------------|
-|-7-7-7-7-7-7-7-x-|-----------------|---------|-4-4-4-4-4-4-4-x-|------------|
   1 e 2 e 3 e 4 e   1 e 2 e 3 e 4 e   1 e 2 e   1 e 2 e 3 e 4 e

-|-----------------|-----------------|----------------------------------------|
-|-----------------|-----------------|----------------------------------------|
-|-5-5-5-5-5-5-5-5-|-5\4-2-----------|----------------------------------------|
-|-5-5-5-5-5-5-5-5-|-5\4-2-4---------|----------------------------------------|
-|-3-3-3-3-3-3-3-3-|-3\2-0-4---------|----------------------------------------|
-|-----------------|-------2---------|----------------------------------------|
   1 e 2 e 3 e 4 e   1 e 2 e 3 e 4 e  etc.

-|-----------------|-----------------|-----------------|-----------------|----|
-|-----------------|-----------------|-----------------|-----------------|----|
-|-5-5-5-5-5-5-5-5-|-5\4-2-----------|-5-5-5-5-5-5-5-5-|-5\4-2-----------|----|
-|-5-5-5-5-5-5-5-5-|-5\4-2-4---4-4-4-|-5-5-5-5-5-5-5-5-|-5\4-2-4---4-4-4-|----|
-|-3-3-3-3-3-3-3-3-|-3\2-0-4---4-4-4-|-3-3-3-3-3-3-3-3-|-3\2-0-4---4-4-4-|----|
-|-----------------|-------2---2-2-2-|-----------------|-------2---2-2-2-|----|
   you'll be                          going out w/radio

-|-----------------|-----------------|-----------------|-----------------|----|
-|-----------------|-----------------|-----------------|-----------------|----|
-|-5-5-5-5-5-5-5-5-|-5\4-2-----------|-5-5-5-5-5-5-5-5-|-5\4-2-----------|----|
-|-5-5-5-5-5-5-5-5-|-5\4-2-4---4-4-4-|-5-5-5-5-5-5-5-5-|-5\4-2-4---4-4-4-|----|
-|-3-3-3-3-3-3-3-3-|-3\2-0-4---4-4-4-|-3-3-3-3-3-3-3-3-|-3\2-0-4---4-4-4-|----|
-|-----------------|-------2---2-2-2-|-----------------|-------2---2-2-2-|----|
  going out w/disco                   going out w/bacchanal

-|-----------------|-----------------|-----------------|-----------------|----|
-|-----------------|-----------------|-----------------|-----------------|----|
-|-5-5-5-5-5-5-5-5-|-5\4-2-----------|-5-5-5-5-5-5-5-5-|-5\4-2-----------|----|
-|-5-5-5-5-5-5-5-5-|-5\4-2-4---4-4-4-|-5-5-5-5-5-5-5-5-|-5\4-2-4---4-4-4-|----|
-|-3-3-3-3-3-3-3-3-|-3\2-0-4---4-4-4-|-3-3-3-3-3-3-3-3-|-3\2-0-4---4-4-4-|----|
-|-----------------|-------2---2-2-2-|-----------------|-------2---2-2-2-|----|
   I'll be                            going out w/telephone

-|-----------------|-----------------|-----------------|-----------------|----|
-|-----------------|-----------------|-----------------|-----------------|----|
-|-5-5-5-5-5-5-5-5-|-5\4-2-----------|-5-5-5-5-5-5-5-5-|-5\4-2-----------|----|
-|-5-5-5-5-5-5-5-5-|-5\4-2-4---4-4-4-|-5-5-5-5-5-5-5-5-|-5\4-2-4---4-4-4-|----|
-|-3-3-3-3-3-3-3-3-|-3\2-0-4---4-4-4-|-3-3-3-3-3-3-3-3-|-3\2-0-4---4-4-4-|----|
-|-----------------|-------2---2-2-2-|-----------------|-------2---2-2-2-|----|
  going out alone                     to the radar zone

-|-----------------|-----------------|-----------------|-----------------|----|
-|-----------------|-----------------|-----------------|-----------------|----|
-|-----------------|-9-9-9-9-9-9-9-x-|-6-6-6-6-6-6-6-x-|-----------------|----|
-|-9-9-9-9-9-9-9-x-|-9-9-9-9-9-9-9-x-|-6-6-6-6-6-6-6-x-|-6-6-6-6-6-6-6-x-|----|
-|-9-9-9-9-9-9-9-x-|-7-7-7-7-7-7-7-x-|-4-4-4-4-4-4-4-x-|-6-6-6-6-6-6-6-x-|----|
-|-7-7-7-7-7-7-7-x-|-----------------|-----------------|-4-4-4-4-4-4-4-x-|----|
   it's all just     inadvertent       imitation    and I don't mean mine

-|-----------------|-----------------|---------|-----------------|------------|
-|-----------------|-----------------|---------|-----------------|------------|
-|-----------------|-9-9-9-9-9-9-9-x-|-6-6-6-x-|-----------------|------------|
-|-9-9-9-9-9-9-9-x-|-9-9-9-9-9-9-9-x-|-6-6-6-x-|-6-6-6-6-6-6-6-x-|------------|
-|-9-9-9-9-9-9-9-x-|-7-7-7-7-7-7-7-x-|-4-4-4-x-|-6-6-6-6-6-6-6-x-|------------|
-|-7-7-7-7-7-7-7-x-|-----------------|---------|-4-4-4-4-4-4-4-x-|------------|
   it's all      across this nation

-|-----------------|-----------------|-----------------|-----------------|----|
-|-----------------|-----------------|-----------------|-----------------|----|
-|-----------------|-9-9-9-9-9-9-9-x-|-6-6-6-6-6-6-6-x-|-----------------|----|
-|-9-9-9-9-9-9-9-x-|-9-9-9-9-9-9-9-x-|-6-6-6-6-6-6-6-x-|-6-6-6-6-6-6-6-x-|----|
-|-9-9-9-9-9-9-9-x-|-7-7-7-7-7-7-7-x-|-4-4-4-4-4-4-4-x-|-6-6-6-6-6-6-6-x-|----|
-|-7-7-7-7-7-7-7-x-|-----------------|-----------------|-4-4-4-4-4-4-4-x-|----|
   if it's just      inadvertent       simulation  a pattern in all mankind

-|-----------------|-----------------|-----------------|-----------------|----|
-|-----------------|-----------------|-----------------|-----------------|----|
-|-----------------|-9-9-9-9-9-9-9-x-|-6-6-6-6-6-6-6-x-|-----------------|----|
-|-9-9-9-9-9-9-9-x-|-9-9-9-9-9-9-9-x-|-6-6-6-6-6-6-6-x-|-7-7-7-7-7-7-7-x-|----|
-|-9-9-9-9-9-9-9-x-|-7-7-7-7-7-7-7-x-|-4-4-4-4-4-4-4-x-|-7-7-7-7-7-7-7-x-|----|
-|-7-7-7-7-7-7-7-x-|-----------------|-----------------|-5-5-5-5-5-5-5-x-|----|
   what's got the    whole world fakin              it

-|-----------------|-----------------|-----------------|-----------------|----|
-|-----------------|-----------------|-----------------|-----------------|----|
-|-5-5-5-5-5-5-5-5-|-5\4-2-----------|-5-5-5-5-5-5-5-5-|-5\4-2-----------|----|
-|-5-5-5-5-5-5-5-5-|-5\4-2-4---4-4-4-|-5-5-5-5-5-5-5-5-|-5\4-2-4---4-4-4-|----|
-|-3-3-3-3-3-3-3-3-|-3\2-0-4---4-4-4-|-3-3-3-3-3-3-3-3-|-3\2-0-4---4-4-4-|----|
-|-----------------|-------2---2-2-2-|-----------------|-------2---2-2-2-|----|


-|-----------------|-----------------|-----------------|-----------------|----|
-|-----------------|-----------------|-----------------|-----------------|----|
-|-5-5-5-5-5-5-5-5-|-5\4-2-----------|-5-5-5-5-5-5-5-5-|-5\4-2-----------|----|
-|-5-5-5-5-5-5-5-5-|-5\4-2-4---4-4-4-|-5-5-5-5-5-5-5-5-|-5\4-2-4---4-4-4-|----|
-|-3-3-3-3-3-3-3-3-|-3\2-0-4---4-4-4-|-3-3-3-3-3-3-3-3-|-3\2-0-4---4-4-4-|----|
-|-----------------|-------2---2-2-2-|-----------------|-------2---2-2-2-|----|


-|-----------------|-----------------|-----------------|-----------------|----|
-|-----------------|-----------------|-----------------|-----------------|----|
-|-5-5-5-5-5-5-5-5-|-5\4-2-----------|-5-5-5-5-5-5-5-5-|-5\4-2-----------|----|
-|-5-5-5-5-5-5-5-5-|-5\4-2-4---4-4-4-|-5-5-5-5-5-5-5-5-|-5\4-2-4---4-4-4-|----|
-|-3-3-3-3-3-3-3-3-|-3\2-0-4---4-4-4-|-3-3-3-3-3-3-3-3-|-3\2-0-4---4-4-4-|----|
-|-----------------|-------2---2-2-2-|-----------------|-------2---2-2-2-|----|
   i'll be                            playing w/my magazine

-|-----------------|-----------------|-----------------|-----------------|----|
-|-----------------|-----------------|-----------------|-----------------|----|
-|-5-5-5-5-5-5-5-5-|-5\4-2-----------|-5-5-5-5-5-5-5-5-|-5\4-2-----------|----|
-|-5-5-5-5-5-5-5-5-|-5\4-2-4---4-4-4-|-5-5-5-5-5-5-5-5-|-5\4-2-4---4-4-4-|----|
-|-3-3-3-3-3-3-3-3-|-3\2-0-4---4-4-4-|-3-3-3-3-3-3-3-3-|-3\2-0-4---4-4-4-|----|
-|-----------------|-------2---2-2-2-|-----------------|-------2---2-2-2-|----|
  using up my listerine               like ovaltine

-|-----------------|-----------------|-----------------|-----------------|----|
-|-----------------|-----------------|-----------------|-----------------|----|
-|-5-5-5-5-5-5-5-5-|-5\4-2-----------|-5-5-5-5-5-5-5-5-|-5\4-2-----------|----|
-|-5-5-5-5-5-5-5-5-|-5\4-2-4---4-4-4-|-5-5-5-5-5-5-5-5-|-5\4-2-4---4-4-4-|----|
-|-3-3-3-3-3-3-3-3-|-3\2-0-4---4-4-4-|-3-3-3-3-3-3-3-3-|-3\2-0-4---4-4-4-|----|
-|-----------------|-------2---2-2-2-|-----------------|-------2---2-2-2-|----|
   and you'll be                      dippin i/y battleship

-|-----------------|-----------------|-----------------|-----------------|----|
-|-----------------|-----------------|-----------------|-----------------|----|
-|-5-5-5-5-5-5-5-5-|-5\4-2-----------|-5-5-5-5-5-5-5-5-|-5\4-2-----------|----|
-|-5-5-5-5-5-5-5-5-|-5\4-2-4---4-4-4-|-5-5-5-5-5-5-5-5-|-5\4-2-4---4-4-4-|----|
-|-3-3-3-3-3-3-3-3-|-3\2-0-4---4-4-4-|-3-3-3-3-3-3-3-3-|-3\2-0-4---4-4-4-|----|
-|-----------------|-------2---2-2-2-|-----------------|-------2---2-2-2-|----|
  for the latest tip                  for the latest dream

-|-----------------|-----------------|-----------------|-----------------|----|
-|-----------------|-----------------|-----------------|-----------------|----|
-|-----------------|-9-9-9-9-9-9-9-x-|-6-6-6-6-6-6-6-x-|-----------------|----|
-|-9-9-9-9-9-9-9-x-|-9-9-9-9-9-9-9-x-|-6-6-6-6-6-6-6-x-|-6-6-6-6-6-6-6-x-|----|
-|-9-9-9-9-9-9-9-x-|-7-7-7-7-7-7-7-x-|-4-4-4-4-4-4-4-x-|-6-6-6-6-6-6-6-x-|----|
-|-7-7-7-7-7-7-7-x-|-----------------|-----------------|-4-4-4-4-4-4-4-x-|----|
   if it's all just  inadvertent       imitation    and  I don't mean mine

-|-----------------|-----------------|---------|-----------------|------------|
-|-----------------|-----------------|---------|-----------------|------------|
-|-----------------|-9-9-9-9-9-9-9-x-|-6-6-6-x-|-----------------|------------|
-|-9-9-9-9-9-9-9-x-|-9-9-9-9-9-9-9-x-|-6-6-6-x-|-6-6-6-6-6-6-6-x-|------------|
-|-9-9-9-9-9-9-9-x-|-7-7-7-7-7-7-7-x-|-4-4-4-x-|-6-6-6-6-6-6-6-x-|------------|
-|-7-7-7-7-7-7-7-x-|-----------------|---------|-4-4-4-4-4-4-4-x-|------------|
   it's all      across this nation

-|-----------------|-----------------|-----------------|-----------------|----|
-|-----------------|-----------------|-----------------|-----------------|----|
-|-----------------|-9-9-9-9-9-9-9-x-|-6-6-6-6-6-6-6-x-|-----------------|----|
-|-9-9-9-9-9-9-9-x-|-9-9-9-9-9-9-9-x-|-6-6-6-6-6-6-6-x-|-6-6-6-6-6-6-6-x-|----|
-|-9-9-9-9-9-9-9-x-|-7-7-7-7-7-7-7-x-|-4-4-4-4-4-4-4-x-|-6-6-6-6-6-6-6-x-|----|
-|-7-7-7-7-7-7-7-x-|-----------------|-----------------|-4-4-4-4-4-4-4-x-|----|
   if it's  just     inadvertent       simulation  a pattern in all mankind

-|-----------------|-----------------|-----------------|-----------------|----|
-|-----------------|-----------------|-----------------|-----------------|----|
-|-----------------|-9-9-9-9-9-9-9-x-|-6-6-6-6-6-6-6-x-|-----------------|----|
-|-9-9-9-9-9-9-9-x-|-9-9-9-9-9-9-9-x-|-6-6-6-6-6-6-6-x-|-7-7-7-7-7-7-7-x-|----|
-|-9-9-9-9-9-9-9-x-|-7-7-7-7-7-7-7-x-|-4-4-4-4-4-4-4-x-|-7-7-7-7-7-7-7-x-|----|
-|-7-7-7-7-7-7-7-x-|-----------------|-----------------|-5-5-5-5-5-5-5-x-|----|
   what's got the    whole world fakin              it

-|-----------------|-----------------|-----------------|-----------------|----|
-|-----------------|-----------------|-----------------|-----------------|----|
-|-9-9-9-9-9-9-----|-9-9-9-9-9-9-----|-----------------|-----------------|----|
-|-9-9-9-9-9-9-----|-9-9-9-9-9-9-----|-----------------|-----------------|----|
-|-7-7-7-7-7-7-----|-7-7-7-7-7-7-----|-----------------|-----------------|----|
-|-----------------|-----------------|-----------------|-----------------|----|
   rythem under solo   repeat 6 times then let ring for two bars

-|-----||---------------------|-----------12-----------|----------------------|
-|-----||---------------------|-/12----------15b17vvv--|----------------------|
-|-----||--2b4r2b4r2p0-2vvvv--|-----14b16--------------|----------------------|
-|-----||---------------------|------------------------|----------------------|
-|-----||---------------------|------------------------|----------------------|
-|-----||---------------------|------------------------|----------------------|
  solo     Slow Bend                 Slow Bend

-|------------------------------------------------|---------------------------|
-|--------15--------------------------------------|---------------------------|
-|--14b16----14b16r14-12-14b16r14-12-14b16-12vvv--|---------------------------|
-|------------------------------------------------|---------------------------|
-|------------------------------------------------|---------------------------|
-|------------------------------------------------|---------------------------|


-|--------12--------------------|--17b19----15-----------|--------------------|
-|-----------15-12--------------|--------------15b17vvv--|--------------------|
-|--14b16----------14b16-12-----|--------0---------------|--------------------|
-|--------------------------14--|--------0---------------|--------------------|
-|------------------------------|------------------------|--------------------|
-|------------------------------|------------------------|--------------------|


-|---------------------|-------------------|----------------------------------|
-|---------------0-----|------15/17b19r17--|----------------------------------|
-|--14b16-12-----2b4---|--/14--------------|----------------------------------|
-|-----------14\-------|-------------------|----------------------------------|
-|---------------------|-------------------|----------------------------------|
-|---------------------|-------------------|----------------------------------|
                                 Very Slow Bend

-|-----------------|-----------------|-----------------|-----------------|----|
-|-----------------|-----------------|-----------------|-----------------|----|
-|-----------------|-9-9-9-9-9-9-9-x-|-6-6-6-6-6-6-6-x-|-----------------|----|
-|-9-9-9-9-9-9-9-x-|-9-9-9-9-9-9-9-x-|-6-6-6-6-6-6-6-x-|-6-6-6-6-6-6-6-x-|----|
-|-9-9-9-9-9-9-9-x-|-7-7-7-7-7-7-7-x-|-4-4-4-4-4-4-4-x-|-6-6-6-6-6-6-6-x-|----|
-|-7-7-7-7-7-7-7-x-|-----------------|-----------------|-4-4-4-4-4-4-4-x-|----|
   P.M. if it's just inadvertent       imitation   a pattern in all mankind

-|-----------------|-----------------|---------|-----------------|------------|
-|-----------------|-----------------|---------|-----------------|------------|
-|-----------------|-----------------|-6-6-6-x-|-----------------|------------|
-|-9-9-9-9-9-9-9-x-|-9-9-9-9-9-9-9-x-|-6-6-6-x-|-6-6-6-6-6-6-6-x-|------------|
-|-9-9-9-9-9-9-9-x-|-9-9-9-9-9-9-9-x-|-4-4-4-x-|-6-6-6-6-6-6-6-x-|------------|
-|-7-7-7-7-7-7-7-x-|-7-7-7-7-7-7-7-x-|---------|-4-4-4-4-4-4-4-x-|------------|
   what's got the    whole world fakin

-|-----------------|-----------------|-----------------|----------------------|
-|-----------------|-----------------|-----------------|----------------------|
-|-----------------|-9-9-9-9-9-9-9-x-|-6-6-6-x---------|----------------------|
-|-9-9-9-9-9-9-9-x-|-9-9-9-9-9-9-9-x-|-6-6-6-x-6-6-6-x-|----------------------|
-|-9-9-9-9-9-9-9-x-|-7-7-7-7-7-7-7-x-|-4-4-4-x-6-6-6-x-|----------------------|
-|-7-7-7-7-7-7-7-x-|-----------------|---------4-4-4-x-|----------------------|
   what's got the    whole world fakin

-|-----------------|-----------------|-----------------|----------------------|
-|-----------------|-----------------|-----------------|----------------------|
-|-----------------|-9-9-9-9-9-9-9-x-|-6-6-6-x---------|----------------------|
-|-9-9-9-9-9-9-9-x-|-9-9-9-9-9-9-9-x-|-6-6-6-x-6-6-6-x-|----------------------|
-|-9-9-9-9-9-9-9-x-|-7-7-7-7-7-7-7-x-|-4-4-4-x-6-6-6-x-|----------------------|
-|-7-7-7-7-7-7-7-x-|-----------------|---------4-4-4-x-|----------------------|
   what's got the    whole world fakin

-|-----------------|-----------------|---------|-----------------|------------|
-|-----------------|-----------------|---------|-----------------|------------|
-|-----------------|-9-9-9-9-9-9-9-x-|-6-6-6-x-|-----------------|------------|
-|-9-9-9-9-9-9-9-x-|-9-9-9-9-9-9-9-x-|-6-6-6-x-|-6-6-6-6-6-6-6-x-|------------|
-|-9-9-9-9-9-9-9-x-|-7-7-7-7-7-7-7-x-|-4-4-4-x-|-6-6-6-6-6-6-6-x-|------------|
-|-7-7-7-7-7-7-7-x-|-----------------|---------|-4-4-4-4-4-4-4-x-|------------|
   what's got the    whole world fakin

-|-----------------|-----------------|---------|-----------------|------------|
-|-----------------|-----------------|---------|-----------------|------------|
-|-----------------|-9-9-9-9-9-9-9-x-|-6-6-6-x-|-----------------|------------|
-|-9-9-9-9-9-9-9-x-|-9-9-9-9-9-9-9-x-|-6-6-6-x-|-6-6-6-6-6-6-6-x-|------------|
-|-9-9-9-9-9-9-9-x-|-7-7-7-7-7-7-7-x-|-4-4-4-x-|-6-6-6-6-6-6-6-x-|------------|
-|-7-7-7-7-7-7-7-x-|-----------------|---------|-4-4-4-4-4-4-4-x-|------------|
   what's got the    whole world fakin

-|-----------------|-----------------|-----------------|-----------------|----|
-|-----------------|-----------------|-----------------|-----------------|----|
-|-----------------|-9-9-9-9-9-9-9-x-|-6-6-6-6-6-6-6-x-|-----------------|----|
-|-9-9-9-9-9-9-9-x-|-9-9-9-9-9-9-9-x-|-6-6-6-6-6-6-6-x-|-7-7-7-7-7-7-7-x-|----|
-|-9-9-9-9-9-9-9-x-|-7-7-7-7-7-7-7-x-|-4-4-4-4-4-4-4-x-|-7-7-7-7-7-7-7-x-|----|
-|-7-7-7-7-7-7-7-x-|-----------------|-----------------|-5-5-5-5-5-5-5-x-|----|
   what's got the    whole world fakin              it              yeah

-|-----------------|-----------------|-----------------|-----------------|----|
-|-----------------|-----------------|-x---------------|-----------------|----|
-|-----------------|-----------------|--x--------------|-----------------|----|
-|-9---------------|-----------------|---9-------------|-----------------|----|
-|-9---------------|-----------------|----9------------|-----------------|----|
-|-7---------------|-----------------|-----7-----------|-----------------|----|
                                                  slide down
Tap to rate this tab
 
# A B C D E F G H I J K L M N O P Q R S T U V W X Y Z