Song name
# A B C D E F G H I J K L M N O P Q R S T U V W X Y Z

Pearl Jam - All Or None chords

Highlighted       Show chord diagrams
-----------------------------------------------------------------------------
                                                   All Or None - Pearl Jam
-----------------------------------------------------------------------------
Tabbed by: empgp

Note: this is my first TAB. These chords make a easy version of this great song
      and although they're not perfect, it seems accurate enough.
      Listen carefully to the song to pick the correct rhythm and strumming.
      Enjoy!

Tuning: standard

     G#m      G#m7   G#sus4*  G#sus4** G#sus4     F#

e|----x--------x--------x--------x--------x--------x--------------|
B|----4--------4--------4--------4--------4--------2--------------|
G|----4--------4--------4--------4--------6--------3--------------|
D|----6--------4--------6--------4--------6--------4--------------|
A|----6--------6--------4--------4--------4--------4--------------|
E|----4--------4--------4--------4--------4--------2--------------|

[INTRO]

G#m    G#m7    G#sus4* G#sus4** G#sus4* G#sus4 G#sus4* X2

[PART I]

G#m    G#m7    G#sus4* G#sus4** G#sus4* G#sus4 G#sus4*

It's a hopeless...              si----tu--a------tion

And I'm starting to...          believe

That this hopeless...           situation

Is what I'm trying to...        achieve


[CHORUS]

F#

But I try
To run on... It's

G#m    G#m7    G#sus4* G#sus4** G#sus4* G#sus4 G#sus4*

All          or                 none...
All          or                 none...

[PART II (same chords as PART I)]

Here's the selfless...     confession
Leading me back...         to war
Can we help that...        our destinations
Are the ones we've been... before

[CHORUS]

F#

I still try
To run on... but it's

G#m    G#m7    G#sus4* G#sus4** G#sus4* G#sus4 G#sus4*

All          or                 none...
All          or                 none...

[1st SOLO]

G#m    G#m7    G#sus4* G#sus4** G#sus4* G#sus4 G#sus4* X4

[PART III (same chords)]

To myself I...                  surrender
To the one I'll never...        please

[CHORUS]

F#

But I still try
To run on...
You know I still try
To run on... but it's

G#m    G#m7    G#sus4* G#sus4** G#sus4* G#sus4 G#sus4*

All          or                 none...
All          or                 none...

[2nd SOLO]

G#m    G#m7    G#sus4* G#sus4** G#sus4* G#sus4 G#sus4* X8

(fade out)
Tap to rate this tab
# A B C D E F G H I J K L M N O P Q R S T U V W X Y Z