Song name
# A B C D E F G H I J K L M N O P Q R S T U V W X Y Z

Pearl Jam - Mind Your Manners tab

Mind you manners by Pearl Jam 2013 Lightning Bolt

This tab from http://boyaguitarra.blogspot.com/2013/09/mind-you-manners-de-pearl-jam.html

                                                              x4
||-------------------------------|------------------------------||
||-------------------------------|------------------------------||
|*-5p4-4-4--4-4-4-5p4-4-4--4-4-4-|-5p4-4-4----------------------*|
|*-------------------------------|------------------------------*|
||-------------------------------|------------------------------||
||-------------------------------|------------------------------||
||                               |                              ||
||-------------------------------|------------------------------||
||-------------------------------|------------------------------||
|*-------------------------------|------------------------------*|
|*-------------------------------|------------------------------*|
||-9-9-9-9--9-9-9-9-9-9-9--9-9-9-|-9-9-9-9----------------------||
||-8p7-7-7--7-7-7-8p7-7-7--7-7-7-|-8p7-7-7----------------------||

                                    x4
||------------------|------------------||-------------|-----------|---------------|--------------|
||------------------|------------------||-------------|-----------|---------------|--------------|
|*-------10--9--10--|------------------*|-7----5-7-5--|-2-----5---|-7------5-7-5--|-2------5-----|
|*-9-9---10--9--10--|-9-9----10--9--7--*|-7----5-7-5--|-2-----5---|-7------5-7-5--|-2------5-----|
||-9-9----8--7---8--|-9-9----10--9--7--||-5----3-5-3--|-0-----3---|-5------3-5-3--|-0------3-----|
||-7-7--------------|-7-7-----8--7--5--||-------------|-----------|---------------|--------------|

                                    x4                                                            
||------------------|------------------||-------------|-----------|---------------|--------------|
||------------------|------------------||-------------|-----------|---------------|--------------|
|*-------10--9--10--|------------------*|-7----5-7-5--|-2-----5---|-7------5-7-5--|-2------5-----|
|*-9-9---10--9--10--|-9-9----10--9--7--*|-7----5-7-5--|-2-----5---|-7------5-7-5--|-2------5-----|
||-9-9----8--7---8--|-9-9----10--9--7--||-5----3-5-3--|-0-----3---|-5------3-5-3--|-0------3-----|
||-7-7--------------|-7-7-----8--7--5--||-------------|-----------|---------------|--------------|


|-------------|-----------|---------------||------------|-------------|--------------|----------||
|-------------|-----------|---------------||------------|-------------|--------------|----------||
|-7----5-7-5--|-2-----5---|-7------5-7-5--|*------------|-------------|--------------|----------*|
|-7----5-7-5--|-2-----5---|-7------5-7-5--|*-2----------|-------------|--------------|----------*|
|-5----3-5-3--|-0-----3---|-5------3-5-3--||-0----------|-------------|--------------|----------||
|-------------|-----------|---------------||------------|-3-----------|-2------------|-3--------||

|----------------------|-----------------------|----------------------|-----------------------|
|----------------------|-----------------------|----------------------|-----------------------|
|----------------------|-----------------------|----------------------|-----------------------|
|-2--------------------|-----------------------|----------------------|-----------------------|
|-0--------------------|-----------------------|----------------------|-----------------------|
|----------------------|-3---------------------|-2--------------------|-0---------------------|
|                      |                       |                      |                       |
|12-x-12-12-12-x-12-12-|-10-x-10-10-10-x-10-10-|-9-x--9--9--9-x--9--9-|--7-x--7--7--7-x--7--7-|
|----------------------|-----------------------|----------------------|-----------------------|
|-9-x--9--9--9-x--9--9-|--7-x--7--7--7-x--7--7-|-6-x--6--6--6-x--6--6-|--4-x--4--4--4-x--4--4-|
|----------------------|-----------------------|----------------------|-----------------------|
|----------------------|-----------------------|----------------------|-----------------------|
|----------------------|-----------------------|----------------------|-----------------------|
 
|-------------|---------------|------------------------------------------|--------------------|
|-10b....-----|-10~~---7------|-12-12-12-12-15-15-15-15-14-14-14-14------|--------------------|
|-------------|------9---7/21-|-------------------------------------11~/-|-9-9-9-9-7-7-7-7----|
|-------------|---------------|------------------------------------------|-----------------9~-|
|-------------|---------------|------------------------------------------|--------------------|
|-------------|---------------|------------------------------------------|--------------------|

|---------------------------------------|-21b22~~~~-\x----|-19b...--21b22-|-19b...--21b22-\x--|
|---------------------------------------|-----------------|---------------|---------------\x--|
|---------------------------------------|-----------------|---------------|-------------------|
|---------------------------------------|-------------/x\-|---------------|-------------------|
|---------------------------------------|-------------/x\-|---------------|-------------------|
|-5-5-5-5-5b-5b-5b-5b-5b-5b-5b-5b-5-5-5-|-----------------|---------------|-------------------|

|-------------|-----------|---------------|--------------|-------------|
|-------------|-----------|---------------|--------------|-------------|
|-7----5-7-5--|-2-----5---|-7------5-7-5--|-2------5-----|-7----5-7-5--|
|-7----5-7-5--|-2-----5---|-7------5-7-5--|-2------5-----|-7----5-7-5--|
|-5----3-5-3--|-0-----3---|-5------3-5-3--|-0------3-----|-5----3-5-3--|
|-------------|-----------|---------------|--------------|-------------|

|-----------|---------------|--------|
|-----------|---------------|--------|
|-2-----5---|-7------5-7-5--|-2------|
|-2-----5---|-7------5-7-5--|-2------|
|-0-----3---|-5------3-5-3--|-0------|
|-----------|---------------|--------|


|----------------------|-----------------------|----------------------|-----------------------|
|----------------------|-----------------------|----------------------|-----------------------|
|----------------------|-----------------------|----------------------|-----------------------|
|-2--------------------|-----------------------|----------------------|-----------------------|
|-0--------------------|-----------------------|----------------------|-----------------------|
|----------------------|-3---------------------|-2--------------------|-3---------------------|
|                      |                       |                      |                       |
|12-x-12-12-12-x-12-12-|-10-x-10-10-10-x-10-10-|-9-x--9--9--9-x--9--9-|-10-x-10-10-10-x-10-10-|
|----------------------|-----------------------|----------------------|-----------------------|
|-9-x--9--9--9-x--9--9-|--7-x--7--7--7-x--7--7-|-6-x--6--6--6-x--6--6-|--7-x--7--7--7-x--7--7-|
|----------------------|-----------------------|----------------------|-----------------------|
|----------------------|-----------------------|----------------------|-----------------------|
|----------------------|-----------------------|----------------------|-----------------------|

|----------------------|-----------------------|----------------------|-----------------------|
|----------------------|-----------------------|----------------------|-----------------------|
|----------------------|-----------------------|----------------------|-----------------------|
|-2--------------------|-----------------------|----------------------|-----------------------|
|-0--------------------|-----------------------|----------------------|-----------------------|
|----------------------|-3---------------------|-2--------------------|-0---------------------|
|                      |                       |                      |                       |
|12-x-12-12-12-x-12-12-|-10-x-10-10-10-x-10-10-|-9-x--9--9--9-x--9--9-|--7-x--7--7--7-x--7--7-|
|----------------------|-----------------------|----------------------|-----------------------|
|-9-x--9--9--9-x--9--9-|--7-x--7--7--7-x--7--7-|-6-x--6--6--6-x--6--6-|--4-x--4--4--4-x--4--4-|
|----------------------|-----------------------|----------------------|-----------------------|
|----------------------|-----------------------|----------------------|-----------------------|
|----------------------|-----------------------|----------------------|-----------------------|

                                                       x6
||-------------------------------|-----------------------||---------------------|
||-------------------------------|-----------------------||---------------------|
|*---------------9---------------|----------7-------7----*|--7-------7----------|
|*-9-------------9---------------|-5--------7---7---7----*|--7---7---7---9------|
||-9-------------7---------------|-5--------5---7---5----||--5---7---5---9------|
||-7-----------------------------|-3------------5--------||------5-------7------|
||                               |                       ||                     |
||-------------------------------|-7\0-------------------||---------------------|
||-------------------------------|-----------------------||---------------------|
|*-5p4-4-4--4-4-4-5p4-4-4--4-4-4-|-----------------------*|--7-------7----------|
|*-------------------------------|-----------------------*|--7---7---7---9------|
||-------------------------------|-----------------------||--5---7---5---9------|
||-------------------------------|-----------------------||------5-------7------|

http://boyaguitarra.blogspot.com/
Tap to rate this tab
# A B C D E F G H I J K L M N O P Q R S T U V W X Y Z