Song name
# A B C D E F G H I J K L M N O P Q R S T U V W X Y Z

Pearl Jam - Infallible tab

-------------------------------------------------------------------------------
                             infallible - pearl jam
-------------------------------------------------------------------------------
Tabbed by: boyaguitarra
E-mail: boyaguitarra@gmail.com

Tuning: half-step down

D#|-------------------------|-----------------|-----------------|-------------------|
A#|-------------------------|-----------------|-----------------|-------------------|
F#|-11-11-11-11-11-11-11-11-|-9-9-9-9-9-9-9-9-|-7-7-7-7-7-7-7-7-|-6-6-6-6--6-4------|
C#|-11-11-11-11-11-11-11-11-|-9-9-9-9-9-9-9-9-|-7-7-7-7-7-7-7-7-|-6-6-6-6-------7-6-|
G#|-9--9--9--9--9--9--9--9--|-7-7-7-7-7-7-7-7-|-5-5-5-5-5-5-5-5-|-4-4-4-4-----------|
D#|-------------------------|-----------------|-----------------|-------------------|

|-------------------------|-----------------|-----------------|-------------------|
|-------------------------|-----------------|-----------------|-------------------|
|-11-11-11-11-11-11-11-11-|-9-9-9-9-9-9-9-9-|-7-7-7-7-7-7-7-7-|-6-6-6-6-----------|
|-11-11-11-11-11-11-11-11-|-9-9-9-9-9-9-9-9-|-7-7-7-7-7-7-7-7-|-6-6-6-6-----------|
|-9--9--9--9--9--9--9--9--|-7-7-7-7-7-7-7-7-|-5-5-5-5-5-5-5-5-|-4-4-4-4-----------|
|-------------------------|-----------------|-----------------|-------------------|

|-------------------------|-----------------|-----------------|-------------------|
|-------------------------|-----------------|-----------------|-------------------|
|-11-11-11-11-11-11-11-11-|-9-9-9-9-9-9-9-9-|-7-7-7-7-7-7-7-7-|-6-6-6-6--6-4------|
|-11-11-11-11-11-11-11-11-|-9-9-9-9-9-9-9-9-|-7-7-7-7-7-7-7-7-|-6-6-6-6-------7-6-|
|-9--9--9--9--9--9--9--9--|-7-7-7-7-7-7-7-7-|-5-5-5-5-5-5-5-5-|-4-4-4-4-----------|
|-------------------------|-----------------|-----------------|-------------------|
                                                                            x3
|--------------------------||-------------------------------------------------||--------------------------|
|--------------------------||-------------------------------------------------||--------------------------|
|--------------------------|*-14-14-14-14--12-12-12-12--11-11-11-11--9-9-9-9--*|--------------------------|
|-12--12--9--9--12--12--9--|*-14-14-14-14--12-12-12-12--11-11-11-11--9-9-9-9--*|-12--12--9--9--12--12--9--|
|-12--12--9--9--12--12--9--||-12-12-12-12--10-10-10-10--9--9--9--9---7-7-7-7--||-12--12--9--9--12--12--9--|
|-10--10--7--7--10--10--7--||-------------------------------------------------||-10--10--7--7--10--10--7--|
                                                                                     
|-------------------------|-----------------|-----------------|-------------------|
|-------------------------|-----------------|-----------------|-------------------|
|-11-11-11-11-11-11-11-11-|-9-9-9-9-9-9-9-9-|-7-7-7-7-7-7-7-7-|-6-6-6-6--6-4------|
|-11-11-11-11-11-11-11-11-|-9-9-9-9-9-9-9-9-|-7-7-7-7-7-7-7-7-|-6-6-6-6-------7-6-|
|-9--9--9--9--9--9--9--9--|-7-7-7-7-7-7-7-7-|-5-5-5-5-5-5-5-5-|-4-4-4-4-----------|
|-------------------------|-----------------|-----------------|-------------------|

|-------------------------|-----------------|-----------------|-------------------|
|-------------------------|-----------------|-----------------|-------------------|
|-11-11-11-11-11-11-11-11-|-9-9-9-9-9-9-9-9-|-7-7-7-7-7-7-7-7-|-6-6-6-6-----------|
|-11-11-11-11-11-11-11-11-|-9-9-9-9-9-9-9-9-|-7-7-7-7-7-7-7-7-|-6-6-6-6-----------|
|-9--9--9--9--9--9--9--9--|-7-7-7-7-7-7-7-7-|-5-5-5-5-5-5-5-5-|-4-4-4-4-----------|
|-------------------------|-----------------|-----------------|-------------------|

|-------------------------|-----------------|-----------------|-------------------|
|-------------------------|-----------------|-----------------|-------------------|
|-11-11-11-11-11-11-11-11-|-9-9-9-9-9-9-9-9-|-7-7-7-7-7-7-7-7-|-6-6-6-6--6-4------|
|-11-11-11-11-11-11-11-11-|-9-9-9-9-9-9-9-9-|-7-7-7-7-7-7-7-7-|-6-6-6-6-------7-6-|
|-9--9--9--9--9--9--9--9--|-7-7-7-7-7-7-7-7-|-5-5-5-5-5-5-5-5-|-4-4-4-4-----------|
|-------------------------|-----------------|-----------------|-------------------|
                                                                           x3                         
|--------------------------||------------------------------------------------||-----------------------------|
|--------------------------||------------------------------------------------||-----------------------------|
|--------------------------|*-14-14-14-14--12-12-12-12--11-11-11-11--9-9-9-9-*|-----------------------9--10-|
|-12--12--9--9--12--12--9--|*-14-14-14-14--12-12-12-12--11-11-11-11--9-9-9-9-*|-12--12--9--9--12--12--9--10-|
|-12--12--9--9--12--12--9--||-12-12-12-12--10-10-10-10--9--9--9--9---7-7-7-7-||-12--12--9--9--12--12--7--8--|
|-10--10--7--7--10--10--7--||------------------------------------------------||-10--10--7--7--10--10--------|

||------------------------------------|------------------------------||-------------------------------|
||------------------------------------|------------------------------||-------------------------------|
|*-11----------------11---------------|-11---------------------------*|-------------------------------|
|*-11-----11---------11---------11----|-11-----11------11-----12-----*|--11-11-11-11--12-12--14--14---|
||-9------11---------9----------11----|-9------11------11-----12-----||--11-11-11-11--12-12--14--14---|
||--------9---------------------9-----|--------9-------9------10-----||--9--9--9--9---10-10--12--12---|
                                                 x4 
||-------------------------------------------------||--------------------------------|
||-------------------------------------------------||--------------------------------|
|*-14-14-14-14--12-12-12-12--11-11-11-11--9-9-9-9--*|--------------------------------|
|*-14-14-14-14--12-12-12-12--11-11-11-11--9-9-9-9--*|-12---12---9---9---12---12---9--|
||-12-12-12-12--10-10-10-10--9--9--9--9---7-7-7-7--||-12---12---9---9---12---12---9--|
||-------------------------------------------------||-10---10---7---7---10---10---7--|

|-------------------------|-----------------|-----------------|-------------------|
|-------------------------|-----------------|-----------------|-------------------|
|-11-11-11-11-11-11-11-11-|-9-9-9-9-9-9-9-9-|-7-7-7-7-7-7-7-7-|-6-6-6-6-----------|
|-11-11-11-11-11-11-11-11-|-9-9-9-9-9-9-9-9-|-7-7-7-7-7-7-7-7-|-6-6-6-6-----------|
|-9--9--9--9--9--9--9--9--|-7-7-7-7-7-7-7-7-|-5-5-5-5-5-5-5-5-|-4-4-4-4-----------|
|-------------------------|-----------------|-----------------|-------------------|

|-------------------------|-----------------|-----------------|-------------------|
|-------------------------|-----------------|-----------------|-------------------|
|-11-11-11-11-11-11-11-11-|-9-9-9-9-9-9-9-9-|-7-7-7-7-7-7-7-7-|-6-6-6-6--6-4------|
|-11-11-11-11-11-11-11-11-|-9-9-9-9-9-9-9-9-|-7-7-7-7-7-7-7-7-|-6-6-6-6-------7-6-|
|-9--9--9--9--9--9--9--9--|-7-7-7-7-7-7-7-7-|-5-5-5-5-5-5-5-5-|-4-4-4-4-----------|
|-------------------------|-----------------|-----------------|-------------------|

|-------------------------|-----------------|-----------------|-------------------|
|-------------------------|-----------------|-----------------|-------------------|
|-11-11-11-11-11-11-11-11-|-9-9-9-9-9-9-9-9-|-7-7-7-7-7-7-7-7-|-6-6-6-6-----------|
|-11-11-11-11-11-11-11-11-|-9-9-9-9-9-9-9-9-|-7-7-7-7-7-7-7-7-|-6-6-6-6-----------|
|-9--9--9--9--9--9--9--9--|-7-7-7-7-7-7-7-7-|-5-5-5-5-5-5-5-5-|-4-4-4-4-----------|
|-------------------------|-----------------|-----------------|-------------------|


source: http://boyaguitarra.blogspot.com/2013/11/infallible-de-pearl-jam-stone-gossard.html

D#|-------------------4-----|-----------------|---------2-------|-------------------|
A#|-7-----------------------|-5---------------|------------3----|-----2-------------|
F#|-6-----------------------|-4---------------|------------2----|-----1-------------|
C#|-------------------------|-----------------|-----------------|-------------------|
G#|-------------------------|-----------------|-----------------|-------------------|
D#|-------------------------|-----------------|-----------------|-------------------|

|-------------------------|-----------------|-----------------|-------------------|
|-------------------------|-----------------|-----------------|-------------------|
|-------------------------|-----------------|-----------------|-------------------|
|-------------------------|-----------------|-----------------|-------------------|
|-------------------------|-----------------|-----------------|-------------------|
|-------------------------|-----------------|-----------------|-------------------|

|-------------------------|-----------------|--------------0--|-------------------|
|-7-----------------------|-5---------------|-3---------------|-2-----------------|
|-6-----------------------|-4---------------|-2---------------|-1-----------------|
|-------------------------|-----------------|-----------------|-------------------|
|-------------------------|-----------------|-----------------|-------------------|
|-------------------------|-----------------|-----------------|-------------------|
                                                                            x3
|--------------------------||-------------------------------------------------||--------------------------|
|--------------------------||-------------------------------------------------||--------------------------|
|--------------------------|*-------------------------------------------------*|--------------------------|
|-12--12--9--9--12--12--9--|*-7------------5------------4------------2--------*|-12--12--9--9--12--12--9--|
|-12--12--9--9--12--12--9--||-7------------5------------4------------2--------||-12--12--9--9--12--12--9--|
|-10--10--7--7--10--10--7--||-5------------3------------2------------0--------||-10--10--7--7--10--10--7--|
                                                                                     
|-------------------4-----|-----------------|---------2-------|-------------------|
|-7-----------------------|-5---------------|------------3----|-----2-------------|
|-6-----------------------|-4---------------|------------2----|-----1-------------|
|-------------------------|-----------------|-----------------|-------------------|
|-------------------------|-----------------|-----------------|-------------------|
|-------------------------|-----------------|-----------------|-------------------|

|-------------------------|-----------------|-----------------|-------------------|
|-------------------------|-----------------|-----------------|-------------------|
|-------------------------|-----------------|-----------------|-------------------|
|-------------------------|-----------------|-----------------|-------------------|
|-------------------------|-----------------|-----------------|-------------------|
|-------------------------|-----------------|-----------------|-------------------|

|-------------------4-----|-----------------|---------2-------|-------------------|
|-7-----------------------|-5---------------|------------3----|-----2-------------|
|-6-----------------------|-4---------------|------------2----|-----1-------------|
|-------------------------|-----------------|-----------------|-------------------|
|-------------------------|-----------------|-----------------|-------------------|
|-------------------------|-----------------|-----------------|-------------------|

|--------------------------||------------------------------------------------||-----------------------------|
|--------------------------||------------------------------------------------||-----------------------------|
|--------------------------|*------------------------------------------------*|-----------------------8--10-|
|-12--12--9--9--12--12--9--|*-7------------5------------4------------2-------*|-12--12--9--9--12--12--8--10-|
|-12--12--9--9--12--12--9--||-7------------5------------4------------2-------||-12--12--9--9--12--12--6--8--|
|-10--10--7--7--10--10--7--||-5------------3------------2------------0-------||-10--10--7--7--10--10--------|

||------------------------------------|------------------------------||-------------------------------|
||------9-10---10-12-14----14-15-14---|------9-10------9-12-9--------||----------------------9---9h10-|
|*---11-------------------------------|---11-------------------11----*|--9------------11--------------|
|*------------------------------------|------------------------------*|-------------------------------|
||------------------------------------|------------------------------||-------------------------------|
||------------------------------------|------------------------------||-------------------------------|
                                                x4 
||-------------------------------------------------||--------------------------------|
||-------------------------------------------------||--------------------------------|
|*-------------------------------------------------*|--------------------------------|
|*-7------------5------------4------------2--------*|-12---12---9---9---12---12---9--|
||-7------------5------------4------------2--------||-12---12---9---9---12---12---9--|
||-5------------3------------2------------0--------||-10---10---7---7---10---10---7--|

|-------------------4-----|-----------------|---------2-------|-------------------|
|-7-----------------------|-5---------------|------------3----|-----2-------------|
|-6-----------------------|-4---------------|------------2----|-----1-------------|
|-------------------------|-----------------|-----------------|-------------------|
|-------------------------|-----------------|-----------------|-------------------|
|-------------------------|-----------------|-----------------|-------------------|

|-------------------4-----|-----------------|---------2-------|-------------------|
|-7-----------------------|-5---------------|------------3----|-----2-------------|
|-6-----------------------|-4---------------|------------2----|-----1-------------|
|-------------------------|-----------------|-----------------|-------------------|
|-------------------------|-----------------|-----------------|-------------------|
|-------------------------|-----------------|-----------------|-------------------|

|------------4------------|-----------------|---------2-------|-------------------|
|------7--------7---7-----|------5----------|------------3----|-----2-------------|
|----6---6--------6-------|---6-------------|------------2----|-----1-------------|
|-------------------------|-----------------|-----------------|-------------------|
|-------------------------|-----------------|-----------------|-------------------|
|-------------------------|-----------------|-----------------|-------------------|

Tap to rate this tab
# A B C D E F G H I J K L M N O P Q R S T U V W X Y Z