Song name
# A B C D E F G H I J K L M N O P Q R S T U V W X Y Z

Pearl Jam - Lightning Bolt tab

-------------------------------------------------------------------------------
                             lightning bolt - pearl jam
-------------------------------------------------------------------------------
Tabbed by: boyaguitarra
E-mail: boyaguitarra@gmail.com

Tuning: standard

|------------------|------------------||--------------------------------|--------------------------------|
|------------------|------------------||--------------------------------|--------------------------------|
|------------------|------------------|*--------------------------------|--------------------------------|
|------------------|------------------|*-11-11--11-12-14-----14-12-11---|-12-12--12-14-16-----16-14-12---|
|-0-0-0-0--0-0-0-0-|-0-0-0-0--0-0-0-0-||-0--0---0--0--0--0-0-0--0--0--0-|-0--0---0--0--0--0-0-0--0--0--0-|
|------------------|------------------||--------------------------------|--------------------------------|
                                                       x4
|--------------------------------|-----------------------||-------------|-----------------|
|--------------------------------|-----------------------||-------------|-----------------|
|--------------------------------|-----------------------*|-2-2--5------|-2-2--7-7-5------|
|-11-11--11-12-14-----14-12-14---|-7-7-7-7-4--4-4--4-4-4-*|-2-2--5------|-2-2--7-7-5------|
|-0--0---0--0--0--0-0-0--0--0--0-|-0-0-0-0-0--0-0--0-0-0-||-0-0--3------|-0-0--5-5-3------|
|--------------------------------|-----------------------||-------------|-----------------|

|---------------------|---------------------|---------------------|-----------------|
|---------------------|---------------------|---------------------|-----------------|
|-2-2--7-7-5--4-5-4-7-|-2--2-7-7-5--4-5-4-7-|-2--2-7-7-5--4-5-4-7-|-2--2-7-7--------|
|-2-2--7-7-5--4-5-4-7-|-2--2-7-7-5--4-5-4-7-|-2--2-7-7-5--4-5-4-7-|-2--2-7-7-5------|
|-0-0--5-5-3--2-3-2-5-|-0--0-5-5-3--2-3-2-5-|-0--0-5-5-3--2-3-2-5-|-0--0-5-5-5------|
|---------------------|---------------------|---------------------|----------3------|
                                                  x3 
||------------|------------|------------|------------||
||------------|------------|------------|------------||
|*-2----------|-5----------|-7----------|-5----------*|
|*-2----------|-5----------|-7----------|-5------5-5-*|
||-0----------|-3----------|-5----------|-3------5-5-||
||------------|------------|------------|--------3-3-||
                                                                      x4
||----------------|-----------------|----------------|-------------------||
||-------5--------|-------3---------|-------3--------|-------3-5-3-------||
|*-----6----6---6-|-----4----4---4--|-----4----4---4-|-----2-------2-----*|
|*---7--------7---|---5--------5----|---4--------4---|---3---------------*|
||----------------|-----------------|----------------|-------------------||
||-5--------------|-3---------------|-2--------------|-1-----------------||

||--0-----------------------||-------------|-----------------|
||--0----------------3------||-------------|-----------------|
|*--1-----2-----4----1------*|-2-2--5------|-2-2--7-7-5------|
|*--2-----2-----2----2------*|-2-2--5------|-2-2--7-7-5------|
||--2-----2-----2----2------||-0-0--3------|-0-0--5-5-3------|
||--0-----0-----0----0------||-------------|-----------------|

|---------------------|---------------------|---------------------|-----------------|
|---------------------|---------------------|---------------------|-----------------|
|-2-2--7-7-5--4-5-4-7-|-2--2-7-7-5--4-5-4-7-|-2--2-7-7-5--4-5-4-7-|-2--2-7-7--------|
|-2-2--7-7-5--4-5-4-7-|-2--2-7-7-5--4-5-4-7-|-2--2-7-7-5--4-5-4-7-|-2--2-7-7-5------|
|-0-0--5-5-3--2-3-2-5-|-0--0-5-5-3--2-3-2-5-|-0--0-5-5-3--2-3-2-5-|-0--0-5-5-5------|
|---------------------|---------------------|---------------------|----------3------|

||--------------------------------|--------------------------------|
||--------------------------------|--------------------------------|
|*--------------------------------|--------------------------------|
|*-11-11--11-12-14-----14-12-11---|-12-12--12-14-16-----16-14-12---|
||-0--0---0--0--0--0-0-0--0--0--0-|-0--0---0--0--0--0-0-0--0--0--0-|
||--------------------------------|--------------------------------|
                                                       x8
|--------------------------------|-----------------------||
|--------------------------------|-----------------------||
|--------------------------------|-----------------------*|
|-11-11--11-12-14-----14-12-14---|-7-7-7-7-4--4-4--4-4-4-*|
|-0--0---0--0--0--0-0-0--0--0--0-|-0-0-0-0-0--0-0--0-0-0-||
|--------------------------------|-----------------------||


source: http://boyaguitarra.blogspot.com/2013/11/lightning-bolt-de-pearl-jam-mike.html

|-------|-------|-------|-------|-------|-------|-------|-------|-------|-------|
|-------|-------|-------|-------|-------|-------|-------|-------|-------|-------|
|-------|-------|-------|-------|-------|-------|-------|-------|-------|-------|
|-------|-------|-------|-------|-------|-------|-------|-------|-------|-------|
|-------|-------|-------|-------|-------|-------|-------|-------|-------|-------|
|-------|-------|-------|-------|-------|-------|-------|-------|-------|-------|

||------------5----------|-2----------5----------||-------------|-----------------|
||-2----------2----------|-3----------3----------||-------------|-----------------|
|*-2----------2----------|-2----------2----------*|-2-2--5------|-2-2--7-7-5------|
|*-2---------------------|-0---------------------*|-2-2--5------|-2-2--7-7-5------|
||-0---------------------|-----------------------||-0-0--3------|-0-0--5-5-3------|
||-----------------------|-----------------------||-------------|-----------------|

|----------------------------------|----------------------------------|----------------------------------|
|----------------------------------|----------------------------------|----------------------------------|
|----------------------------------|----------------------------------|----------------------------------|
|----------------------------------|----------------------------------|----------------------------------|
|-7-7--/12-12--10---9-10-9-/12-/7--|-7-7--/12-12--10---9-10-9-/12-/7--|-7-7--/12-12--10---9-10-9-/12-/7--|
|----------------------------------|----------------------------------|----------------------------------|

|-------------||-------------------------------------------------------||
|-------------||-------------------------------------------------------||
|-------------|*-------------------------------------------------------*|
|-------7--5--|*-7--5-7-/10--7--5-7-/10--7-5-7--5-7-/10--7-10-/12-10---*|
|-7-7---------||-------------------------------------------------------||
|-------5--3--||-------------------------------------------------------||

|------5-5-----5-5-----5---------------------------------------------------------------------|
|------5-5-----5-5-----5-7b9b7-5-7-7---------------------------------------------------------|
|--7b9-----7b9-----7b9---7b9b7-5-7-7--5-7-5--7b9b7b9b7b9--7-5-7--5---------------------------|
|--------------------------------------------------------------------------------------------|
|--------------------------------------------------------------------------------------------|
|-----------------------------------------------------------------------/17----/17-----/17---|

|--------------|---------------|--------------|--------------|
|--------------|---------------|--------------|--------------|
|--------------|---------------|--------------|--------------|
|-7------------|-5-------------|-4------------|-3------------|
|-7------------|-5-------------|-4------------|-3------------|
|-5------------|-3-------------|-2------------|-1------------|

||--0-----------------------||-----------|---------------|
||--0----------------3------||-----------|---------------|
|*--1-----2-----4----1------*|-2-2--5----|-2-2--7-7-5----|
|*--2-----2-----2----2------*|-2-2--5----|-2-2--7-7-5----|
||--2-----2-----2----2------||-0-0--3----|-0-0--5-5-3----|
||--0-----0-----0----0------||-----------|---------------|

|----------------------------------|----------------------------------|----------------------------------|
|----------------------------------|----------------------------------|----------------------------------|
|----------------------------------|----------------------------------|----------------------------------|
|----------------------------------|----------------------------------|----------------------------------|
|-7-7--/12-12--10---9-10-9-/12-/7--|-7-7--/12-12--10---9-10-9-/12-/7--|-7-7--/12-12--10---9-10-9-/12-/7--|
|----------------------------------|----------------------------------|----------------------------------|
                                                                                            x10
|-------------|-------|-------|-------|-------||------------5----------|-2----------5----------||
|-------------|-------|-------|-------|-------||-2----------2----------|-3----------3----------||
|-------------|-------|-------|-------|-------|*-2----------2----------|-2----------2----------*|
|-------7--5--|-------|-------|-------|-------|*-2---------------------|-0---------------------*|
|-7-7---------|-------|-------|-------|-------||-0---------------------|-----------------------||
|-------5--3--|-------|-------|-------|-------||-----------------------|-----------------------||

|-------7/9-----------12-----15/17---------------7/9--------9-----------------|
|--10-------10------------14--------15------10-------10-------10--------------|
|-----9----------------------------------------9-----------------/7-----------|
|-----------------------------------------------------------------------------|
|-----------------------------------------------------------------------------|
|-----------------------------------------------------------------------------|

Tap to rate this tab
# A B C D E F G H I J K L M N O P Q R S T U V W X Y Z